Funeral For A Friend - Monsters Chords & Tabs

 

Monsters Chords & Tabs

Funeral For A Friend Chords & Tabs

Version: 1 Type: Tab 0 ratings
1 star 2 stars 3 stars 4 stars 5 stars
comments

Monsters Tab

Song: Monsters
Band: Funeral For A Friend
Album: Hours
Tabbed by: fourways
Email: fourwaystoscreamyourname@hotmail.com
Tuning:Drop D - 1/2 step down

I'm not completly sure about this so correct me if i'm wrong.

Intro

eb|-------------------------------------------------------------------------|
Bb|-------------------------------------------------------------------------|
Gb|-10----7----9----5----7----4----5----7----4----5----2--------------------|
Db|--8----5----7----3----5----2----3----5----2----3----0--------------------|
Ab|--8----5----7----3----5----2----3----5----2----3----0--------------------|
Db|--8----5----7----3----5----2----3----5----2----3----0--------------------|


eb|-------------------------------------------------------------------------|
Bb|-------------------------------------------------------------------------|
Gb|--14-----You'll have to listen to the song for the rythm for this part --|
Db|--x------because i'm not sure how it goes. ------------------------------|
Ab|--12---------------------------------------------------------------------|
Db|-------------------------------------------------------------------------|

Verse

This rhythm part is all palm muted
eb|-------------------------------------------------------------------------|
Bb|-------------------------------------------------------------------------|
Gb|-------------------------------------------------------------------------|
Db|--8----5----7----3----5----2----3----5----2----3----0--------------------|
Ab|--8----5----7----3----5----2----3----5----2----3----0--------------------|
Db|--8----5----7----3----5----2----3----5----2----3----0--------------------|
[ Tab from: http://www.guitartabs.cc/tabs/f/funeral_for_a_friend/monsters_tab.html ]
eb|-----------------------------------------------|
Bb|------------------------------------13-------15|
Gb|--14-14----14-14----14-14-----14-------14------|
Db|--x--x-----x--x-----x--x---12----12-------12---|
Ab|--12-12----12-12----12-12----------------------|
Db|-----------------------------------------------|

  
eb|-----------------------------------------------|
Bb|-----------------------------------------------|
Gb|--14-14----14-14----14-14-----17----19---------|
Db|--x--x-----x--x-----x--x------x-----x----------|
Ab|--12-12----12-12----12-12-----15----17---------|
Db|-----------------------------------------------|

Chorus

eb|-----------------------------------------------|
Bb|-----------------------------------------------|
Gb|-10----7----9----------------------------------|
Db|--8----5----7----------------------------------|
Ab|--8----5----7----------------------------------|
Db|--8----5----7----------------------------------|
    
   (You'll have to work the lead out yourself cos i cant hear it right)

Bridge

   Listen to the CD for the rhythm
eb|------------------------------------------------------------------------------|
Bb|------------------------------------------------------------------------------|
Gb|--------------------------------5--7-----------5--7-----------5--7------------|
Db|--5--3--5--7--3--5--3--5--7--3--------5--7-----------5--7-----------5--7-----5|
Ab|--------------------------------------------8--------------8--------------8---|
Db|------------------------------------------------------------------------------|

Intro
Verse
Intro
Verse
Chorus
Verse
Intro
Chorus
Bridge
Chorus

Any corrections ??? email me: fourwaystoscreamyourname@hotmail.com
Comments