Funeral For A Friend - Moments Forever Faded Chords & Tabs

 

Moments Forever Faded Chords & Tabs

Funeral For A Friend Chords & Tabs

Version: 1 Type: Tab 0 ratings
1 star 2 stars 3 stars 4 stars 5 stars
comments

Moments Forever Faded Tab

Song:  Moments Forever Faded
Artist:  Funeral for a Friend
Album:  Cassually Dressed and Deep In Conversation
Tabbed by: Joe Brundige (joebrundige@hotmail.com)

Hey, I'm pretty sure this is it.  If you have any corrections or questions
or comments or whatever, email me.  Have fun.
-Joe


m = palm mute


GUITAR 1



-INTRO:

e|----
B|----
G|-6--
D|-6--
A|-4--
E|----

Play two 8th notes, one 8th rest. repeat until 0:34



-VERSE:

  1   2   3   4    1   2   3   4    1   2   3   4    1   2   3   4  
e|----------------|----------------|----------------|----------------|
B|----------------|----------------|----------------|----------------|
G|----------------|5-----3---------|----------------|----------------|
D|----------------|------------3---|----------------|----------------|
A|----------------|----------------|----------------|----------------|
E|----------------|----------------|----------------|----------------|
			       ^Let ring 9 counts

  1   2   3   4    1   2   3   4    1   2   3   4    1   2   3   4  
e|----------------|----------------|----------------|----------------|
B|----------------|----------------|----------------|----------------|
G|5--3------------|5--3------------|5--3------------|------3-3-5-6---|
D|------6-6-3-----|------6-6-3-----|------6-6-3-----|1--3------------|
A|----------------|----------------|----------------|----------------|
E|----------------|----------------|----------------|----------------|



-CHORUS:

  1   2   3   4    1   2   3   4    1   2   3   4    1   2   3   4  
e|----------------|----------------|----------------|----------------|
B|----------------|----------------|----------------|----------------|
G|----------------|----------------|----------------|6-6-6-6-6-6-6-6-|
D|4-4-4-4-4-4-4-4-|4-4-4-4-4-4-4-4-|8-8-8-8-8-8-8-8-|6-6-6-6-6-6-6-6-|
A|4-4-4-4-4-4-4-4-|4-4-4-4-4-4-4-4-|8-8-8-8-8-8-8-8-|4-4-4-4-4-4-4-4-|
E|2-2-2-2-2-2-2-2-|2-2-2-2-2-2-2-2-|6-6-6-6-6-6-6-6-|----------------|


  1   2   3   4    1   2   3   4    1   2   3   4    1   2   3   4  
e|----------------|----------------|----------------|----------------|
B|----------------|----------------|----------------|----------------|
G|----------------|----------------|----------------|6-6-6-6-6--6--6-|
D|4-4-4-4-4-4-4-4-|4-4-4-4-4-4-4-4-|8-8-8-8-8-8-8-8-|6-6-6-6-6--6--6-|
A|4-4-4-4-4-4-4-4-|4-4-4-4-4-4-4-4-|8-8-8-8-8-8-8-8-|4-4-4-4-4--4--4-|
E|2-2-2-2-2-2-2-2-|2-2-2-2-2-2-2-2-|6-6-6-6-6-6-6-6-|----------------|



-BRIDGE:

e|----
G|----
B|----
D|-8--
A|-8--
E|-6--

same pattern as intro - two 8th notes, an 8th rest. after 4 measures (16 counts), switch to

e|----
G|----
B|----
D|-4--
A|-4--
E|-2--

same pattern.  repeat until 3:37

GUITAR 2



-INTRO:

Come in at 00:12 with
[ Tab from: http://www.guitartabs.cc/tabs/f/funeral_for_a_friend/moments_forever_faded_tab.html ]
  1   2   3   4    1   2   3   4    1   2   3   4    1   2   3   4   
e|----------------|----------------|----------------|----------------|
G|----------------|----------------|----------------|----------------|
B|----------------|----------------|----------------|----------------|
D|8---------------|6---------------|4---------------|----------------|
A|8---------------|6---------------|4---------------|----------------|
E|6---------------|4---------------|2---------------|----------------|



-VERSE:

  1   2   3   4    1   2   3   4    1   2   3   4    1   2   3   4  
e|----------------|----------------|----------------|----------------|
B|----------------|----------------|----------------|----------------|
G|----------------|----------------|----------------|----------------|
D|8---------------|----------------|----------------|----------------|
A|8---------------|----------------|----------------|----------------|
E|6---------------|----------------|----------------|----------------|
  ^Let Ring 16 counts  				      
  1   2   3   4    1   2   3   4    1   2   3   4    1   2   3   4    
e|----------------|----------------|----------------|----------------|
B|----------------|----------------|----------------|----------------|
G|----------------|----------------|----------------|----------------|
D|4--4--4-4-4-----|4--4--4-4-4-----|4--4--4-4-4-----|4--4--4-4-4--6--|
A|4--4--4-4-4-----|4--4--4-4-4-----|4--4--4-4-4-----|4--4--4-4-4--6--|
E|2--2--2-2-2-----|2--2--2-2-2-----|2--2--2-2-2-----|2--2--2-2-2--4--|
  m  m  m m        m  m  m m        m  m  m m        m  m  m m     



-CHORUS:

  1   2   3   4    1   2   3   4    1   2   3   4    1   2   3   4  
e|----------------|----------------|----------------|----------------|
B|----------------|----------------|----------------|----------------|
G|----------------|----------------|----------------|6-6-6-6-6-6-6-6-|
D|4-4-4-4-4-4-4-4-|4-4-4-4-4-4-4-4-|8-8-8-8-8-8-8-8-|6-6-6-6-6-6-6-6-|
A|4-4-4-4-4-4-4-4-|4-4-4-4-4-4-4-4-|8-8-8-8-8-8-8-8-|4-4-4-4-4-4-4-4-|
E|2-2-2-2-2-2-2-2-|2-2-2-2-2-2-2-2-|6-6-6-6-6-6-6-6-|----------------|


  1   2   3   4    1   2   3   4    1   2   3   4    1   2   3   4  
e|----------------|----------------|----------------|----------------|
B|----------------|----------------|----------------|----------------|
G|----------------|----------------|----------------|6-6-6-6-6--6--6-|
D|4-4-4-4-4-4-4-4-|4-4-4-4-4-4-4-4-|8-8-8-8-8-8-8-8-|6-6-6-6-6--6--6-|
A|4-4-4-4-4-4-4-4-|4-4-4-4-4-4-4-4-|8-8-8-8-8-8-8-8-|4-4-4-4-4--4--4-|
E|2-2-2-2-2-2-2-2-|2-2-2-2-2-2-2-2-|6-6-6-6-6-6-6-6-|----------------|



-BRIDGE:

(part 1)
  1   2   3   4    1   2   3   4    1   2   3   4    1   2   3   4   
e|----------------|----------------|----------------|----------------|
G|----------------|----------------|----------------|----------------|
B|----------------|----------------|----------------|----------------|
D|8---------------|----------------|----------------|----------------|
A|8---------------|----------------|----------------|----------------|
E|6---------------|----------------|----------------|----------------|
  ^Let ring 16 counts

Rest 48 counts, then

(part 2)
e|----
G|----
B|----
D|-8--
A|-8--
E|-6--

Two 8th notes, an 8th rest. Repeat for 16 counts, then

e|----
G|----
B|----
D|-4--
A|-4--
E|-2--

same pattern. Repeat for 16 counts, then repeat part 2 until 3:37



ORDER:

Intro x1
Verse x4
Chorus x2
Verse x2
Chorus x2
Bridge
Chorus x3
Comments