Funeral For A Friend - Kiss And Makeup Chords & Tabs

 

Kiss And Makeup Chords & Tabs

Funeral For A Friend Chords & Tabs

Version: 1 Type: Tab 0 ratings
1 star 2 stars 3 stars 4 stars 5 stars
comments

Kiss And Makeup Tab

song: Kiss And Make Up
band: Funeral For A Friend
tabbed by:funeralforafrie

Okay well I tabbed this by watching the live video which focuses on the guitars quite
alot, apart from during the "hearts" bit, so excuse any mistakes etc, ill keep adding as
time goes on



Eb|-------------------------|                    
Bb|---13----10----8-----6---|                   
Gb|---X-----X-----X-----X---|  x2                
Db|---10----7-----5-----3---|                     
Ab|-------------------------|                     
Db|-------------------------|                     

Ends on the first note, then when it plays for the second time 

Guitar two plays this twice I believe



Eb|----------------------------------------------------------------------|
Bb|----------------------------------------------------------------------|
Gb|----------------------------------------------------------------------|
Db|---8-------10---10-------7---7----------------------------------------|
Ab|---8---------------------------------10---10-------8---8-------7-7-7--|
Db|---8---8-8----8----8-8-8---8---8-8-8----8----8-8-8---8---8-8-8--------|


Eb|----------------------------------------------------------------------|
Bb|----------------------------------------------------------------------|
Gb|----------------------------------------------------------------------|
Db|---0-------10---10-------7---7----------------------------------------|
Ab|---0---------------------------------10---10-------8---8-------7-7-7--|
Db|---0---0-0----0----0-0-0---0---0-0-0----0----0-0-0---0---0-0-0--------|


And before the verse starts both guitars play this
remember too let it ring

Eb|------|
Bb|------|
Gb|---5--|
Db|---3--|
Ab|---3--|
Db|---3--|




Verse!

Guitar 1:


Eb|-----------------------------------------------|
Bb|---13-13---13-13-13---13-13-13---13/15-15-15---|
Gb|---X--X----X--X--X----X--X--X----X--X--X--X----|
Db|---10-10---10-10-10---10-10-10---10/12-12-12---|
Ab|-----------------------------------------------|
Db|-----------------------------------------------|


Eb|----------------------------------------------|
Bb|---13-13---13-13---13-13---13-13---15-15-15---|
Gb|---X--X----X--X----X--X----X--X----X--X--X----|
Db|---10-10---10-10---10-10---10-10---12-12-12---|
Ab|----------------------------------------------|
Db|----------------------------------------------|


Eb|----------------------------------------------|
Bb|---13-13---13-13---13-13---13-13---15-15-15---|
Gb|---X--X----X--X----X--X----X--X----X--X--X----|
Db|---10-10---10-10---10-10---10-10---12-12-12---|
Ab|----------------------------------------------|
Db|----------------------------------------------|


Eb|--------------------------------------------|
Bb|---13-13---13-13---13-13/15-15-15/17-17-17--|
Gb|---X--X----X--X----X--X--X--X--X--X--X--X---|
Db|---10-10---10-10---10-10/12-12-12/14-14-14--|
Ab|--------------------------------------------|
Db|--------------------------------------------|


Eb|-----------------------------------------------|
Bb|---13-13---13-13-13---13-13-13---13/15-15-15---|
Gb|---X--X----X--X--X----X--X--X----X--X--X--X----|
Db|---10-10---10-10-10---10-10-10---10/12-12-12---|
Ab|-----------------------------------------------|
Db|-----------------------------------------------|


Eb|----------------------------------------------|
Bb|---13-13---13-13---13-13---13-13---15-15-15---|
Gb|---X--X----X--X----X--X----X--X----X--X--X----|
Db|---10-10---10-10---10-10---10-10---12-12-12---|
Ab|----------------------------------------------|
Db|----------------------------------------------|


Eb|----------------------------------------------
Bb|---13-13---13-13---13-13---13-13---15-15-15---
Gb|---X--X----X--X----X--X----X--X----X--X--X----
Db|---10-10---10-10---10-10---10-10---12-12-12---
Ab|----------------------------------------------
Db|----------------------------------------------

[ Tab from: http://www.guitartabs.cc/tabs/f/funeral_for_a_friend/kiss_and_makeup_tab.html ]
Eb|--------------------------------------------|
Bb|---13-13---13-13---13-13/15-15-15/17-17-17--|
Gb|---X--X----X--X----X--X--X--X--X--X--X--X---|
Db|---10-10---10-10---10-10/12-12-12/14-14-14--|
Ab|--------------------------------------------|
Db|--------------------------------------------|



Guitar 2



Eb|---------------------------------------------------------------|
Bb|---------------------------------------------------------------|
Gb|------------------------------------------------10-10--9--5/7--|
Db|---8-8--8-8-8--8-8-8--8/10-10-10---8-8--8-8--8--X--X---X--X-X--|
Ab|---8-8--8-8-8--8-8-8--8/10-10-10---8-8--8-8--8--8--8---7--3/5--|
Db|---8-8--8-8-8--8-8-8--8/10-10-10---8-8--8-8--8-----------------|


Eb|------------------------------------------------------------------|
Bb|------------------------------------------------------------------|
Gb|------------------------------------------------------------------|
Db|---3-3-3--3-3--3-3/5-5-5--7-7-7---3-3-3--3-3--3-3/5-5-5--7-7-7-7--|
Ab|---3-3-3--3-3--3-3/5-5-5--7-7-7---3-3-3--3-3--3-3/5-5-5--7-7-7-7--|
Db|---3-3-3--3-3--3-3/5-5-5--7-7-7---3-3-3--3-3--3-3/5-5-5--7-7-7-7--|


Eb|---------------------------------------------------------------|
Bb|---------------------------------------------------------------|
Gb|------------------------------------------------10-10--9--5/7--|
Db|---8-8--8-8-8--8-8-8--8/10-10-10---8-8--8-8--8--X--X---X--X-X--|
Ab|---8-8--8-8-8--8-8-8--8/10-10-10---8-8--8-8--8--8--8---7--3/5--|
Db|---8-8--8-8-8--8-8-8--8/10-10-10---8-8--8-8--8-----------------|


Eb|------------------------------------------------------------------|
Bb|------------------------------------------------------------------|
Gb|--------------------------------------------------5-5-5-5---------|
Db|---3-3-3--3-3--3-3/5-5-5--7-7-7---3-3-3--3-3--3---X-X-X-X---------|
Ab|---3-3-3--3-3--3-3/5-5-5--7-7-7---3-3-3--3-3--3---3-3-3-3---------|
Db|---3-3-3--3-3--3-3/5-5-5--7-7-7---3-3-3--3-3--3-------------------|


Then chorus..

Okay so I might be wrong, but I believe that guitar two's intro part
is played here, while guitar one does something abit like this about four times I expect.

Eb|-------------------|
Bb|-------------------|
Gb|---9/10--9/10/12---|
Db|---X-X---X-X--X----| 
Ab|---7/8---7/8/-10---|
Db|-------------------|

From here on I am stuck, any help with the "HEARTS" bit would be veeeryy helpful, but I regain my skill when;

Matt starts singing
"On the one thing you betted on"

You simply play this throughout!

Both guitars play both parts clean!!!

Eb|-------------------------------------------------|
Bb|-------------------------------------------------|
Gb|---10-10-10-9--9--9--9--9--9--9--9--9--9--9--9---|
Db|---10-10-10-10-10-10-10-10-10-10-10-10-10-10-10--|
Ab|---8--8--8--8--8--8--8--8--8--8--8--8--8--8--8---|
Db|-------------------------------------------------|

Eb|-----------------------------|
Bb|-----------------------------|
Gb|-----------------------------|
Db|---5-5-5-5-5-5--8-8-8-8-8-8--| Play this until the end, let ring
Ab|---5-5-5-5-5-5--8-8-8-8-8-8--|
Db|0--5-5-5-5-5-5--8-8-8-8-8-8--|


Lyrics:

no matter where you go
they'll fucking tie you down
and bleed you from your wrists [bleed you from your wrists]
well, it's better that we leave
leave it this way [leave it this way]

and just to soften the blow
i 'll steal all of your kisses [your kisses]
and sew them up
in the creases of our hearts.

no matter where you go
they'll fucking tie you down
and bleed you from your wrists [bleed you from your wrists]
well, it's better that we leave
leave it this way [leave it this way]

and just to soften the blow
i 'll steal all of your kisses [your kisses]
and sew them up
in the creases of our hearts.

HEARTS
never really loved you anyway.

and on the one thing you betted on
don't ever let them take you down.
oh, on the one thing you betted on
don't ever let them take you down.
Comments