Funeral For A Friend - Juneau Chords & Tabs

 

Juneau Chords & Tabs

Funeral For A Friend Chords & Tabs

Version: 2 Type: Tab 0 ratings
1 star 2 stars 3 stars 4 stars 5 stars
comments

Juneau Tab

Juneau - Funeral For A Friend
Tabbed by Tom Martin

Tuning - Standard

Two guitars - Rythm and Lead

---------------------------------------------------------------------------------

Intro - (0:00 - 0:08)

Rythm
|--------------------------------------------------------------------------------------------|
|--------------------------------------------------------------------------------------------|
|--------------------------------------------------------------------------------------------|
|---14-(14-14-14--14-14-14-14)-----14-14-14-14/16-16-16---18-(18-18-18--18-18-18-18)----16---|
|---14-(14-14-14--14-14-14-14)-x3--14-14-14-14/16-16-16---18-(18-18-18--18-18-18-18)-x3--x---|
|---12-(12-12-12--12-12-12-12)-----12-12-12-12/14-14-14---16-(16-16-16--16-16-16-16)----14---|
                                                                                         ^
                                                                                     Hold note
Lead
|----------------------------------------------------------------------------|
|----------------------------------------------------------------------------|
|--11-(11-11-11--11-11-11-11)-----9-------8----------------------------------|
|---9-(-9--9--9---9--9--9--9)-x5--9-(x7)--9-(x7)-9---------------------------|
|---7-(-7--7--7---7--7--7--7)-----7-------7------x---------------------------|
|------------------------------------------------7---------------------------|
                                                 ^ Hold note

----------------------------------------------------------------------------------------------


1st part of 1st verse (0:08 - 0:27)

Slide down bottom string to 0 (E|---\0---)

Rythm
|----------------------------------------------------------------------------|
|----------------------------------------------------------------------------|
|----------------------------------------------------------------------------|
|---2-(2-2-2--2-2-2-2)-----2-2-2-2/4--6-(6-6-6--6-6-6-6)----4----------------| x2
|---2-(2-2-2--2-2-2-2)-x3--2-2-2-2/4--6-(6-6-6--6-6-6-6)-x3-4----------------|
|---0-(0-0-0--0-0-0-0)-----0-0-0-0/2--4-(4-4-4--4-4-4-4)----2----------------|

Lead
|----------------------------------------------------------------------------|
|----------------------------------------------------------------------------|
|---4-(4-4-4--4-4-4-4)-----4-4-4-4/6-----------------------------------------|
|---4-(4-4-4--4-4-4-4)-x3--4-4-4-4/6--8------9------8------------------------| x2
|---2-(2-2-2--2-2-2-2)-----2-2-2-2/4--6-(x7)-6-(x7)-6-(x7)-9-----------------|
|----------------------------------------------------------7-(x7)------------|

----------------------------------------------------------------------------------------------

2nd part of 1st verse (0:27 - 0:48)

Rythm
|----------------------------------------------------------------------------|
|----------------------------------------------------------------------------|
|---4-(4-4-4--4-4-4-4)-----4-4-4-4/6-----------------------------------------|
|---4-(4-4-4--4-4-4-4)-x3--4-4-4-4/6--8------9------8------------------------| x2
|---2-(2-2-2--2-2-2-2)-----2-2-2-2/4--6-(x7)-6-(x7)-6-(x7)-9-----------------|
|----------------------------------------------------------7-(x7)------------|

Lead
|----------------------------------------------------------------------------|
|--(--7---5---0--)-------4-5-4----(--7---5---0--)------4-5-4-----------------|
|--(4---4---4---4)--x4---------6--(4---4---4---4)-x4--------6-4-6-4v---------|
|----------------------------------------------------------------------------|
|----------------------------------------------------------------------------|
|----------------------------------------------------------------------------|
 Not exact picking       ^-----^                      ^-----------^
								   Hold note

----------------------------------------------------------------------------------------------

2nd verse (0:48 - 1:07)
                 
Rythm
|----------------------------------------------------------------------------|
|----------------------------------------------------------------------------|
|----------------------------------------------11-9-8-6----------------------|
|---2-------------2-----------2---2-----6------------------------------------| x2
|---2-------------2-----------2---2-----6------------------------------------|
|---0----0-0-0-0--0--0-0-0-0--0-0-0-0---4------------------------------------|
PM       - - - -     - - - -    -   -          ^------^ tp (Tremelo pick)

Lead
|----------------------------------------------------------------------------|
|---x-4----------------------------------------------------------------------|
|-------8p4-4----------------------------------------------------------------|
|----------------------------------------------------------------------------| x16
|----------------------------------------------------------------------------|
|----------------------------------------------------------------------------|

----------------------------------------------------------------------------------------------

1st part of 3rd verse (1:07 - 1:26)

Rythm
|----------------------------------------------------------------------------|
|----------------------------------------------------------------------------|
|---4-(4-4-4--4-4-4-4)-----4-4-4-4/6-----------------------------------------|
|---4-(4-4-4--4-4-4-4)-x3--4-4-4-4/6--8------9------8------------------------| x2
|---2-(2-2-2--2-2-2-2)-----2-2-2-2/4--6-(x7)-6-(x7)-6-(x7)-9-----------------|
|----------------------------------------------------------7-(x7)------------|

Lead
|----------------------------------------------------------------------------|
|-------------4~~~~~~--5--4--------------------------------------------------|
|---4~~~~~~~~----------------6-----------------------------------------------|
|----------------------------------------------------------------------------| x2
|----------------------------------------------------------------------------|
|----------------------------------------------------------------------------|
  
----------------------------------------------------------------------------------------------

2nd part of 3st verse (1:26 - 1:50)
[ Tab from: http://www.guitartabs.cc/tabs/f/funeral_for_a_friend/juneau_tab_ver_2.html ]
Rythm
|----------------------------------------------------------------------------|
|----------------------------------------------------------------------------|
|---4-(4-4-4--4-4-4-4)-----4-4-4-4/6-----------------------------------------|
|---4-(4-4-4--4-4-4-4)-x3--4-4-4-4/6--8------9------8------------------------| x2
|---2-(2-2-2--2-2-2-2)-----2-2-2-2/4--6-(x7)-6-(x7)-6-(x7)-9-----------------|
|----------------------------------------------------------7-(x7)------------|

Lead
|----------------------------------------------------------------------------|
|--(--7---5---0--)-------4-5-4----(--7---5---0--)------4-5-4-----------------|
|--(4---4---4---4)--x4---------6--(4---4---4---4)-x4--------6-4-6-4v---------|
|----------------------------------------------------------------------------|
|----------------------------------------------------------------------------|
|----------------------------------------------------------------------------|
 Not exact picking       ^-----^                       ^-----------^
								   Hold note

----------------------------------------------------------------------------------------------

Bridge (2:03 - 2:21)

Rythm
|------------------------------------------------------------------------------|
|------------------------------------------------------------------------------|
|---(--11---11---)----(---11---11---)----(--11---11---)-------11----11----11---|
|---(-9----9----9)-x2-(--9----9----9)-x2-(-9----9----9) x2---9-----9-----9-----|
|---(7----7----7-)----(11---11---11-)----(7----7----7-)----11----11----11------|
|------------------------------------------------------------------------------|
									  ^ Hold note
Lead
|----------------------------------------------------------------------------|
|------19-------19----------19-----------------------------------------------|
|---16-------16----16----16--------------------------------------------------|
|---------18----------18-----------------------------------------------------| x4
|----------------------------------------------------------------------------|
|----------------------------------------------------------------------------|
Last time hold note^

----------------------------------------------------------------------------------------------

4th verse (2:21 - 2:40)
                 
Rythm
|----------------------------------------------------------------------------|
|----------------------------------------------------------------------------|
|----------------------------------------------11-9-8-6----------------------|
|---2-------------2-----------2---2-----6------------------------------------| x2
|---2-------------2-----------2---2-----6------------------------------------|
|---0----0-0-0-0--0--0-0-0-0--0-0-0-0---4------------------------------------|
PM       - - - -     - - - -    -   -          ^------^ tp (Tremelo pick)

Lead
|----------------------------------------------------------------------------|
|---x-4----------------------------------------------------------------------|
|-------8p4-4----------------------------------------------------------------|
|----------------------------------------------------------------------------| x16
|----------------------------------------------------------------------------|
|----------------------------------------------------------------------------|

----------------------------------------------------------------------------------------------

Breakdown/Bridge (2:40 - 3:18)

Rythm
|----------------------------------------------------------------------------|
|----------------------------------------------------------------------------|
|---4-(4-4-4--4-4-4-4)-----4-4-4-4/6-----------------------------------------|
|---4-(4-4-4--4-4-4-4)-x3--4-4-4-4/6--8------9------8------------------------| x2
|---2-(2-2-2--2-2-2-2)-----2-2-2-2/4--6-(x7)-6-(x7)-6-(x7)-9-----------------|
|----------------------------------------------------------7-(x7)------------|

Lead
|----------------------------------------------------------------------------|
|--(--7---5---0--)-------4-5-4----(--7---5---0--)------4-5-4-----------------|
|--(4---4---4---4)--x4---------6--(4---4---4---4)-x4--------6-4-6-4v---------|
|----------------------------------------------------------------------------| x2
|----------------------------------------------------------------------------|
|----------------------------------------------------------------------------|
 Not exact picking       ^-----^                       ^-----------^
								   Hold note

----------------------------------------------------------------------------------------------

Outro (3:18 - 3:35)

Rythm
|--------------------------------------------------------------------------------------------|
|--------------------------------------------------------------------------------------------|
|--------------------------------------------------------------------------------------------|
|---14-(14-14-14--14-14-14-14)-----14-14-14-14/16-16-16---18-(18-18-18--18-18-18-18)----16---|
|---14-(14-14-14--14-14-14-14)-x3--14-14-14-14/16-16-16---18-(18-18-18--18-18-18-18)-x3--x---|
|---12-(12-12-12--12-12-12-12)-----12-12-12-12/14-14-14---16-(16-16-16--16-16-16-16)----14---|
                                                                                         ^
                                                                               Hold note

Lead
|----------------------------------------------------------------------------|
|----------------------------------------------------------------------------|
|--11-(11-11-11--11-11-11-11)-----9-------8----------------------------------|
|---9-(-9--9--9---9--9--9--9)-x5--9-(x7)--9-(x7)-9---------------------------|
|---7-(-7--7--7---7--7--7--7)-----7-------7------x---------------------------|
|------------------------------------------------7---------------------------|
                                                 ^ hold note

---------------------------------------------------------------------------------
There we are, jeez, that's a complicated tab, hope it all makes sense ;)
I'm sure its pretty much 100% correct, but any comments woould be appreciated

email - infantfinite666@hotmail.com - Feel free to add me to MSN
Comments