Funeral For A Friend - Hospitality Chords & Tabs

 

Hospitality Chords & Tabs

Funeral For A Friend Chords & Tabs

Version: 1 Type: Tab 0 ratings
1 star 2 stars 3 stars 4 stars 5 stars
comments

Hospitality Tab

   
SONG: Hospitality
BAND: Funeral For A Friend
ALBUM: Hours
AWESOMENESS: 2800+

Here's Hospitality. Majorly difficult to work out, nobody else has anything at all for
this so it's all from my own slightly frazzled brain. I think it's all right, although
the intro may be one note off somewhere.

Comments are encouraged and welcomed. emoluke@gmail.com

-------------
Kris Roberts:
-------------

Intro

eb|-------------|
Bb|-------------|
Gb|-7--7--7--7--| (One strum, play through twice).
Db|-5--5--4--4--|
Ab|-3--3--7--5--|
Db|-------------|

Pre-Verse

eb|----------------------------------------------0-|
Bb|----------------------------------------------5-|
Gb|---0--------0--------0----------0-----0-----0---|
Db|-----4--------4--------4------4-----4-----4-----|
Ab|-7-----5--7-----5--7-----5--3-----3-----5-------|
Db|------------------------------------------------|

eb|------------------------------------------------|
Bb|------------------------------------------------|
Gb|---0--------0--------0----------0-----0-----0-0-|
Db|-----4--------4--------4------4-----4-----4---4-|
Ab|-7-----5--7-----5--7-----5--3-----3-----5-----5-|
Db|------------------------------------------------|

Verse

eb|------------------------------------|
Bb|------------------------------------|
Gb|----------------7------------7------|
Db|-222222222------------7--------7----|
Ab|-222222222-9-10---9-10--9-10-----10-|
Db|-222222222--------------------------|

eb|-------------------0-----|
Bb|---------------------3---| (Second time through, leave out the
Gb|-----0-2---0-2---0-----0-|  last three notes).
Db|---4-----4-----4---------|
Ab|-3-----------------------|
Db|-------------------------|

Chorus

eb|------------------------------------------------------------|
Bb|------------------------------------------------------------|
Gb|-4-5--4-5--4-5--4-5--5-7-7--0-0-0-0-0-0-0-0-0-0-0-0-0-0-0-0-|
Db|-5-5--5-5--5-5--5-5--5-7-7--5-5-5-5-5-5-4-4-4-4-4-4-0-0-0-0-|
Ab|-3-3--3-3--3-3--3-3--3-5-5--3-3-3-3-3-3-5-5-5-5-5-5-5-5-5-5-|
Db|------------------------------------------------------------|

eb|------------------------------------------------------|
Bb|------------------------------------------------------|
Gb|-4-5--4-5--4-5--4-5--5-7-7----------------------------|
Db|-5-5--5-5--5-5--5-5--5-7-7--5--5-5-5-9--9-9-9-9-9-9-9-|
Ab|-3-3--3-3--3-3--3-3--3-5-5--5--5-5-5-9--9-9-9-9-9-9-9-|
Db|----------------------------5--5-5-5-9--9-9-9-9-9-9-9-|

Bridge

eb|---------------------------------------------------------------------|
Bb|---------------------------------------------------------------------|
Gb|---------------------------------------14----16----12----14----16----|
Db|-9/10-10-9/10-10-9/10-9/10-10-9/10-10---x-----x-----x-----x-----x----|
Ab|-9/10-10-9/10-10-9/10-9/10-10-9/10-10--12-x6-14-x4-10-x2-12-x2-14-x2-|
Db|-9/10-10-9/10-10-9/10-9/10-10-9/10-10--------------------------------|

eb|---------------------------------------------------------------|
Bb|---------------------------------------------------------------|
Gb|---------------------------------------14----16----19----12----|
Db|-9/10-10-9/10-10-9/10-9/10-10-9/10-10---x-----x-----x-----x----|
Ab|-9/10-10-9/10-10-9/10-9/10-10-9/10-10--12-x6-14-x3-17-x4-10-x3-|
Db|-9/10-10-9/10-10-9/10-9/10-10-9/10-10--------------------------|

eb|--------------------------------|
Bb|--------------------------------|
Gb|--------14----16----19----12----| (Repeat this last one twice).
Db|-10------x-----x-----x-----x----|
Ab|-10-x16-12-x6-14-x3-17-x4-10-x3-|
Db|-10-----------------------------|

Breakdown

eb|------------------------------------------------------------------|
Bb|-------3-3-3-------3-3-3-----3-3--------3-3-3-------3-3-3-----3-3-|
Gb|-------4-4-4-------4-4-4-----4-4--------4-4-4-------4-4-4-----4-4-|
Db|-------2-2-2-------2-2-2-----2-2--5-5-5-5-5-5-5-5-5-5-5-5-5-5-5-5-|
Ab|-2-2-2-------2-2-2-------2-2------3-3-3-------3-3-3-------3-3-----|
Db|-2-2-2-------2-2-2-------2-2--------------------------------------|
    . . .       . . .       . .      . . .       . . .       . .
[ Tab from: http://www.guitartabs.cc/tabs/f/funeral_for_a_friend/hospitality_tab.html ]
eb|------------------------------------|
Bb|-------3-3-3-------3-3-3-----3-3--3-|
Gb|-------0-0-0-------0-0-0-----0-0--0-|
Db|-------4-4-4-------4-4-4-----4-4--4-|
Ab|-0-0-0-------0-0-0-------0-0------0-|
Db|----------------------------------0-|
    . . .       . . .       . .

Outro

eb|-------------------------|
Bb|-3-----3-----3-----3-----| (These chords are played over, a lot of
Gb|-4-----4-----0-----0-----|  times. The breakdown chords are swapped
Db|-2-----5-----4-----4-----|  in sometimes too, so pay attention).
Ab|-2-x16-3-x16-0-x16-0-x16-|
Db|-2-----------------0-----|

eb|-----------------------------------------------|
Bb|-3-----3-----3---------------3-3-----------3-3-|
Gb|-4-----4-----0---------------4-4-----------2-2-|
Db|-2-----5-----4-----0000-0000-0-0-0000-0000-0-0-|
Ab|-2-x16-3-x16-0-x16-0000-0000-0-0-0000-0000-0-0-|
Db|-2-----------------0000-0000-0-0-0000-0000-0-0-|
                      .... ....     .... ....

-------------
Darran Smith:
-------------

Pre-Verse

eb|------------------------------|
Bb|---7---10----7---7---10-8-7---| (Play this part, and play the two
Gb|-7---7-----7---7---7--------7-|  endings whenever Kris plays those
Db|------------------------------|  ones. The endings are the same for
Ab|------------------------------|  both guitars).
Db|------------------------------|

eb|-------------------0-|---------------------|
Bb|-------------------5-|---------------------|
Gb|-----0-----0-----0---|-----0-----0-----0-0-|
Db|---4-----4-----4-----|---4-----4-----4---4-|
Ab|-3-----3-----5-------|-3-----3-----5-----5-|
Db|---------------------|---------------------|

Verse

eb|--------------------------|
Bb|-----------7--------------|
Gb|-------------9-7------9-7-|
Db|-222222222-------9-10-----|
Ab|-222222222----------------|
Db|-222222222----------------|

eb|-------------------------|
Bb|-------------------------| (Second time through, leave out the
Gb|-----0-----0-----0-0-----|  last three notes).
Db|---4-----4-----4-----4---|
Ab|-3-----3-----5---------5-|
Db|-------------------------|

Chorus

eb|----------------------------------------------------------------|
Bb|----------------------------8-----8-----10-----10-----10---10---|
Gb|-5-4-5-4--5-4-5-4--4--5-7-7---5-5---5-7----7-7----7-7----7----7-|
Db|-5-5-5-5--5-5-5-5--5--5-5-5-------------------------------------|
Ab|----------------------------------------------------------------|
Db|----------------------------------------------------------------|
                                 . .   . .    . .    . .    .    .

eb|--------------------------------------------------------|
Bb|----------------------------3-----3---5-5-5-5-5-5-5-5-5-|
Gb|-5-4-5-4--5-4-5-4--4--5-7-7---5-5---5-------------------|
Db|-5-5-5-5--5-5-5-5--5--5-5-5-----------------------------|
Ab|--------------------------------------------------------|
Db|--------------------------------------------------------|
                                 . .   .

Bridge

eb|-----------10---------------------7-|
Bb|---7-8---7----10-8---7-8---7-8-10---|
Gb|-7-----7-----------7-----7----------|
Db|------------------------------------|
Ab|------------------------------------|
Db|------------------------------------|

eb|-------------------------------------------------------------15----|
Bb|-12h13-13-15-13-13-12h13-13-15-13-12h13-13-15-13-13-12h13-13----13-|
Gb|-------------------------------------------------------------------|
Db|-------------------------------------------------------------------|
Ab|-------------------------------------------------------------------|
Db|-------------------------------------------------------------------|

Outro

eb|----------15----------------15----|
Bb|-12h13-15----15-13-12h13-15----15-|
Gb|----------------------------------|
Db|----------------------------------|
Ab|----------------------------------|
Db|----------------------------------|

eb|-17-15----17-15----17-15-|
Bb|-------15-------15-------|
Gb|-------------------------|
Db|-------------------------|
Ab|-------------------------|
Db|-------------------------|
Comments