Funeral For A Friend - Hospitality Chords & Tabs

 

Hospitality Chords & Tabs

Funeral For A Friend Chords & Tabs

Version: 1 Type: Bass Tab 0 ratings
1 star 2 stars 3 stars 4 stars 5 stars
comments

Hospitality Bass Tab

Band:.....Funeral For A Friend
Song:.....Hospitality
Bassist:..Gareth Davies
Album:....Hours [2005]

Verse 1 (Come in at 0:14)
F#|---0------|
C#|-2---4-0~-|
G#|----------| [x3]
C#|----------|

F#|------------------------------|
C#|--4-5---4-5-0-4-5-7-5-4-4h5p4-|
G#|-3----3-----------------------| Don't play 2nd time round (0:37)
C#|------------------------------|

Verse 2 (Come in at 0:41)
F#|------------------------------------------|
C#|------------------------------------------|
G#|------------------------------------------|
C#|-22222220~----22222220~----2222222/12~----|

F#|----------------------------|
C#|--4-5---4-5-0-4-5-{5-4-2-4}-| Leave out {} part 2nd time round (1:07)
G#|-3----3---------------------|
C#|----------------------------|

Chorus (Come in at 1:10)
F#|--------------------------------------|
C#|-22-22-22-22-2234--------000000005554-|
G#|------------------333333--------------|
C#|--------------------------------------|

F#|------------------------------------|
C#|-22-22-22-22-2234-------------------|
G#|-------------------------2-2222-----|
C#|------------------5-5555--------5\--|

F#|--------------------------------------|
C#|-------------------------000000000000-|
G#|------------------333333--------------|
C#|-22-22-22-22-2220---------------------|
[ Tab from: http://www.guitartabs.cc/tabs/f/funeral_for_a_friend/hospitality_btab.html ]
Bridge (Come in at 2:31 - "Please nurse...")
F#|-------------------------------------------------|
C#|-------------------------------------------------|
G#|-------10-------10-------10-------10-------10----|
C#|-10-10----10-10----10-10----10-10----10-10----10-|

F#|-------------------------------------------------|
C#|-------------------------------------------------|
G#|-12-------12-------12-------12-------12-------12-|
C#|----12-12----12-12----12-12----12-12----12-12----|

Outro 1 (Come in at 3:09)
F#|--------------------------------------|
C#|--------------------------------------|
G#|---------------------3333333333333333-|
C#|-14\2222222222222222------------------|

F#|-----------------------------------|
C#|-----------------------------------|
G#|-5555555555555555------------------|
C#|------------------0-00000000000000-|

Outro 2 (Come in at 3:34 - "Cause I'm not angry, tired or sore...")
F#|---------------------------------------|
C#|-----------------------5-5----5-5---5--|
G#|----2-2----2-2---2--333----333----33-3-|
C#|-222----222----22-2--------------------|

F#|--------------------------------------|
C#|----4-4----4-4---4--------------------|
G#|-555----555----55-5-------------------|
C#|--------------------00000000-00000000-|


Song Structure:
Verse 1   (x2)
Verse 2   (x2)
Chorus    (x1)
Verse 2   (x2)
Chorus    (x1)
Bridge    (x4)
Outro 1   (x2)
Outro 2   (x2)
Outro 1   Fadeout

Notes:
Not 100% right. The second parts of the verses are different to what's here, but it 
works. The bridge isn't as complicated as it sounds, it's as it is here. In Outro 2, keep 
open C# in rhythm with the kick drum.
Comments