Funeral For A Friend - Drive Chords & Tabs

 

Drive Chords & Tabs

Funeral For A Friend Chords & Tabs

Version: 1 Type: Tab 0 ratings
1 star 2 stars 3 stars 4 stars 5 stars
comments

Drive Tab

   
Band : Funeral for a Friend
Song : Drive
Tabbed by : Calum (afirock74@hotmail.com)
Drop D, Down 1/2 Step Db Ab Db Gb Bb Eb

(I don't think its quite finished but its mostly there)

>< - Scratch/Dead Note
x - Palm Mute
/ - Slide
h - Hammer On
p - Pull Off
~ - Let Ring
b - Bend
tp - Tremolo Pick

Intro/Verse Guitar 1:
Eb|--2---3~---2---3~---5---3~---5---3~-|
Bb|---3~-------3~-------3~-------3~----|
Gb|------------------------------------|
Db|------------------------------------|
Ab|------------------------------------|
Db|------------------------------------|

Intro/Verse Guitar 2:
Eb|----------------------------------------------------------------|
Bb|----------------------------------------------------------------|
Gb|----------------------------------------------------------------|
Db|-9-9-9-9-9-9-9-9--7-7-7-7-7-7-7--5-5-5-5-5-5-5-5-5-5-5-5-5-5-5--|
Ab|-9-9-9-9-9-9-9-9--7-7-7-7-7-7-7--5-5-5-5-5-5-5-5-5-5-5-5-5-5-5--|
Db|-9-9-9-9-9-9-9-9--7-7-7-7-7-7-7--5-5-5-5-5-5-5-5-5-5-5-5-5-5-5--|
    x x x x x x x x  x x x x x x x  x x x x x x x x x x x x x x x
[ Tab from: http://www.guitartabs.cc/tabs/f/funeral_for_a_friend/drive_tab.html ]
Chorus
Eb|------------------------------------------------------------|
Bb|----------------------------------------3----3----3----3----|
Gb|-0-0h2-4~---2~---0---0-0h2-4~---2~---0---0-0--0-0--0-0--0-0-|
Db|------------------------------------------------------------|
Ab|------------------------------------------------------------|
Db|------------------------------------------------------------|

Chorus Guitar 2: (not palm muted after 1st chorus)
Eb|----------------------------------------------------------------|
Bb|----------------------------------------------------------------|
Gb|----------------------------------------------------------------|
Db|-9-9-9-9-9-9-9-9--7-7-7-7-7-7-7--5-5-5-5-5-5-5-5-5-5-5-5-5-5-5--|
Ab|-9-9-9-9-9-9-9-9--7-7-7-7-7-7-7--5-5-5-5-5-5-5-5-5-5-5-5-5-5-5--|
Db|-9-9-9-9-9-9-9-9--7-7-7-7-7-7-7--5-5-5-5-5-5-5-5-5-5-5-5-5-5-5--|
    x x x x x x x x  x x x x x x x  x x x x x x x x x x x x x x x

Bridge Guitar 1:
Eb|--10----------------------------|-------------------------------------------------|
Bb|-----10/12~--10--8--------------|-------------------------------------------------|
Gb|--------------------------------|-12-12/14-12---12-12/14-12----17-16-14-12-12-14--|
Db|--------------------------------|-------------------------------------------------|
Ab|--------------------------------|-------------------------------------------------|
Db|--------------------------------|-------------------------------------------------|

Outro Guitar 1:
Eb|--15----|
Bb|----15~-|
Gb|--------|
Db|--------|
Ab|--------|
Db|--------|

Outro Guitar 2: 
Eb|-------------|
Bb|--------0----|
Gb|--0-0/4---0--|
Db|-------------|
Ab|-------------|
Db|-------------|
Comments