Funeral For A Friend - Bullet Theory Chords & Tabs

 

Bullet Theory Chords & Tabs

Funeral For A Friend Chords & Tabs

Version: 6 Type: Tab 0 ratings
1 star 2 stars 3 stars 4 stars 5 stars
comments

Bullet Theory Tab

   
Bullet Theory tabbed by the grandma

this is so right.a five star i heard

Tuning:E A D G B E
[ Tab from: http://www.guitartabs.cc/tabs/f/funeral_for_a_friend/bullet_theory_tab_ver_6.html ]
Intro
e|-----------------------------------------------------|
B|----555---444-----------------555--------------------|
G|----------------4444444444----444---666--------------|
D|-----------------------------------------------------|
A|------------------------------------------444444444--|
E|-----------------------------------------------------|
Chorus
e|-------------------------------------------------------------------------------------|
B|----555---444----------------------------------------------5---4---------------------|
G|----------------4---------4---------4-----6666----------------------4----------------|
D|----------------------6--------6--------------------6--------------------------------|
A|----------------------------------------------------4--------------------------------|
E|----------------------------------------------------4--------------------------------|
Verse
e|-------------------------------------------------------------------------|
B|-------------------------------------------------------------------------|
G|--------------------------6xx4xx6xx6xx6x6/8------------------------------|
D|---6---6---6---6---------------------------------------------------------|
A|---4---4---4---4------------------the x's are not palm mutes just mutes--|
E|---4---4---4---4---------------------------------------------------------|
riff in verse
e|--------------------------------------------------------------------------|
B|--------------------------------------------------------------------------|
G|--------------------------------------------------------------------------|
D|-------2---4--------2---4-----------4---6--------4---6--------4----7---6--|
A|----0------------0--------------2-------------2------------4--------------|
E|--------------------------------------------------------------------------|
Comments