Funeral For A Friend - Bullet Theory Chords & Tabs

 

Bullet Theory Chords & Tabs

Funeral For A Friend Chords & Tabs

Version: 5 Type: Tab 0 ratings
1 star 2 stars 3 stars 4 stars 5 stars
comments

Bullet Theory Tab

   
Song - Bullet Theory
Artist - Funeral For A Friend
Tabbed by - Asad Noorani [tbs_182]--asad__n@hotmail.com
Tuning is
		D#
		A#
		F#
		C#
		G#
		C#

intro/chorus ( listen for Pm pattern)
Guitrar 1
D#|-------------------------------------------------------------------|
A#|-------------------------------------------------------------------|
F#|10-10-10-9-9-9-5-5-5-5-5-5-5--5-5-5--7-7-7-------------------------|
C#|-------------------------------------------7-7-7-7-7-7-7-----------|
G#|-------------------------------------------------------------------|
C#|-------------------------------------------------------------------|

D#|------------------------------------------------------------|
A#|------------------------------------------------------------|
F#|-10-10-10-9-9-9-5-5-5-5-5-5--5-5-5--7-7-7-------------------|
C#|-----------------------------------------7-7-7-7-7-7-7-7----|
G#|------------------------------------------------------------|
C#|------------------------------------------------------------|

D#|-------------------------------------------------------------------|
A#|--------------------------------------------------10---------------|
F#|-10-10-10-9-9-9-5-5-5-5-5-5--5-5-5--7-7-7----10p9------9h10--------|
C#|-----------------------------------------------------7-------------|
G#|-------------------------------------------------------------------|
C#|-------------------------------------------------------------------|

D#|--------------------------------------------------------------|
A#|--------------------------------------------------------------|
F#|-10-10-10-9-9-9-5-5-5-5-5-5--5-5-5---7-7-7~-------------------|
C#|--------------------------------------------------------------|
G#|--------------------------------------------------------------|
C#|--------------------------------------------------------------|
[ Tab from: http://www.guitartabs.cc/tabs/f/funeral_for_a_friend/bullet_theory_tab_ver_5.html ]
Guitar 2 (heavy intro/chorus)(listen for strumming pattern)
D#|---------------------------------------------------------------|
A#|---------------------------------------------------------------|
F#|--------------------------------------~------------------------|
C#|--8---3--3--5--0-----------------------------------------------|
G#|--8---3--3--5--0-----------------------------------------------|
C#|--8---3--3--5--0-----------------------------------------------|

verse (in this guitar 2 just does open strumming every now and then)

D#|---------------------------------------------------------------|
A#|---------------------------------------------------------------|
F#|----7----5---7--5--7v-----5--7--5---7h9v-----------------------|
C#|---------------------------------------------------------------|
G#|---------------------------------------------------------------|
C#|-000--00--00--00-0----000--00-00-000---------------------------|

Prechorus (guitar 1 keeps doing the verse riff whilst guitar 2 does this)

D#|----------------------------------------------------------------|
A#|----------------------------------------------------------------|
F#|----------------------------------------------------------------|
C#|-0-3-5--0-3-5--0-5-7--0-5-7--0-5-8-7----------------------------|
G#|----------------------------------------------------------------|
C#|----------------------------------------------------------------|

interlude (both guitars)

D#|---|-------|------------------------------------------------------|
A#|---|-------|------------------------------------------------------|
F#|---|-----10|------------------------------~-----------------------|
C#|-0-|--12b14|------------------------------------------------------|
G#|-0-|-------|------------------------------------------------------|
C#|-0-|-------|------------------------------------------------------|

Outro (either guitar)

D#|---------------|---------------------------------------------|
A#|-----10--------|---------------------------------------------|
F#|-9-10--10-9----|---------------------------------------------|
C#|-----------10--|--0~-----------------------------------------|
G#|---------------|--0~-----------------------------------------|
C#|---------------|--0~-----------------------------------------|
Comments