Funeral For A Friend - Bullet Theory Chords & Tabs

 

Bullet Theory Chords & Tabs

Funeral For A Friend Chords & Tabs

Version: 3 Type: Tab 0 ratings
1 star 2 stars 3 stars 4 stars 5 stars
comments

Bullet Theory Tab

   
INTRO 
                                                           C# PALM MUTE
E|-------------------------------------------------------
B|-------------------------------------------------------
G|-9-9-9-8-8-8----------------------6-6-6---------------- PALM MUTE
D|-------------9-9-9-9-9-99-9-9--------6-6-6-6-6-6-6-6--
A|-------------------------------------------------------
D|-------------------------------------------------------

   C# PALM MUTE                                 C#
E|--------------------------------------------------------
B|--------------------------------------------------------
G|-9-9-9-8-8-8---------------------6-6-6------------------ Gently release
D|--------------9-9-9-9-9-99-9-9---------6-6-6-6-6-6-6-6- palm mute
A|--------------------------------------------------------
D|--------------------------------------------------------
 
   A               B                                     C#
E|---------------------------------------------------------
B|----------------------------------------------------9----
G|-9-9-9-8-8-8---------------------6-6-6-- -9p8---8h9------
D|--------------9-9-9-9-9-9--9-9-9----- -6------9----------
A|---------------------------------------------------------
D|---------------------------------------------------------

   A                B                                  C#(Let ring)
E|---------------------------------------------------------
B|---------------------------------------------------------
G|-9-9-9-8-8-8--------------------6-6-6--------------------
D|-------------9-9-9-9-9-9--9-9-9-------6~-----------------
A|---------------------------------------------------------
D|---------------------------------------------------------

[ Tab from: http://www.guitartabs.cc/tabs/f/funeral_for_a_friend/bullet_theory_tab_ver_3.html ]
VERSE
     C#			    C#                          C#
E|------------------------------------------------------------------
B|------------------------------------------------------------------
G|-----------6------------6--------6-------6----------6-----6--8----
D|-----------------9------------9----------------9------------------
A|------------------------------------------------------------------
D|------------------------------------------------------------------

Guitar 2 (while Guitar 1 plays riff above)
E|----------------------------------------------
B|----------------------------------------------
G|----------4------4----------6------6--4--6----
D|-------4------4----------6------6-------------
A|-2--2------2------2--4------4-----------------
D|----------------------------------------------


CHORUS

   A                  B                                       C#
E|---------------------------------------------------------
B|---------------------------------------------------------
G|-9-9-9-8-8-8----------------------6-6-6------------------
D|--------------9-9-9-9-9-9--9-9-9---------6~--------------
A|---------------------------------------------------------
D|---------------------------------------------------------

MIDDLE BIT

E|--------------------------------
B|-9h8----9h8----9h8----9h8------- What the background sounds like
G|-------------------------------- 
D|-------------------------------- Guitar 2 plays the chord C# but 
A|-------------------------------- with  pick scrapes and feedback
D|--------------------------------
                                                              (C#)
E|--------------------------------------------------------
B|--------------------------------------------------------
G|-9-9-9-8-8-8---------------------6-6-6------------------
D|--------------9-9-9-9-9-99-9-9---------6-6-6-6-6-6-6-6-
A|--------------------------------------------------------
D|--------------------------------------------------------

END

E|--------------------------------------
B|---------------9-----------------9----
G|-9h8-----8h9-------9h8-----8h9--------
D|------9-----------------9-------------
A|--------------------------------------
D|--------------------------------------
Comments