Funeral For A Friend - Bullet Theory Chords & Tabs

 

Bullet Theory Chords & Tabs

Funeral For A Friend Chords & Tabs

Version: 1 Type: Tab 3 ratings
1 star 2 stars 3 stars 4 stars 5 stars
comments

Bullet Theory Tab

Artist: Funeral for a Friend.
Song: Bullet Theory. 
Tabbed by: Rob Clement.
[ Tab from: http://www.guitartabs.cc/tabs/f/funeral_for_a_friend/bullet_theory_tab.html ]
Intro:
Db-----------------------------------------------------------------------------------------
Ab-----------------------------------------------------------------------------------------
Db-----------------------------------------------------------------7--7--7--7--7--7--7--7---
Gb--10--10--10--9--9--9--5--5--5--5--5--5--5--5--5--5--5--7--7--7--7--7--7--7--7--7--7--7---
Bb------------------------------------------------------------------------------------------
Eb------------------------------------------------------------------------------------------

Chorus:
Db--8--8--8--8--x--10---------10--10--12--12--0-----------------------
Ab--8--8--8--8--x--10--PAUSE--10--10--12--12--0----------------------
Db--8--8--8--8--x--10---------10--10--12--12--0----------------------
Gb-------------------------------------------------------------------
Bb-------------------------------------------------------------------
Eb-------------------------------------------------------------------
Comments