Funeral For A Friend - Bullet Theory Chords & Tabs

 

Bullet Theory Chords & Tabs

Funeral For A Friend Chords & Tabs

Version: 1 Type: Bass Tab 0 ratings
1 star 2 stars 3 stars 4 stars 5 stars
comments

Bullet Theory Bass Tab

   
#----------------------------------PLEASE NOTE---------------------------------#
#This file is the author's own work and represents their interpretation of the-#
#song. You may only use this file for private study, scholarship, or research.-#
#------------------------------------------------------------------------------#

Funeral For A Friend - Bullet Theory
Record    - Casually Dressed And Deep In Conversation
Bassist   - Gareth Davies
Tabbed by - Kael Morgan

Down half a step, then drop D


Intro (00:14)
Gb|----------------------------------------------------------------
Db|----------------------------------------------------------------
Ab|---------------------------------------------------------------- x1
Db|-8-8-8-8--8-10---10---10-10--10-10-12-12--12-12---12---12-12-12-

Gb|------------------------------------------------
Db|------------------------------------------------
Ab|------------------------------------------------ x1
Db|-8-8-8-8--8-10---10---10-10--10-10-12-12--12-12-


Verse (00:28)
Gb|--------------------------
Db|--------------------------
Ab|-------------------------- x1
Db|-0-0-0-0------------0-0-0-

Gb|---------------------------------------
Db|---------------------------------------
Ab|--------------------------------------- x1
Db|-0-0-0-300600306036-0-0-0-300600306077-

Gb|-------------------------------------------
Db|-------------------------------------------
Ab|------------------------------------------- x4
Db|-8-8-8-8-8-8-10-10-10-10-10-10-10-10-10-10-


Chorus (00:56)
Gb|----------------------------------------------------------------
Db|----------------------------------------------------------------
Ab|---------------------------------------------------------------- x1
Db|-8-8-8-8--8-10---10---10-10--10-10-12-12--12-12---12---12-12-12-

Gb|------------------------------------------------
Db|------------------------------------------------
Ab|------------------------------------------------ x1
Db|-8-8-8-8--8-10---10---10-10--10-10-12-12--12-12-


Verse (01:10)
Gb|--------------------------
Db|--------------------------
Ab|-------------------------- x1
Db|-0-0-0-0------------0-0-0-
[ Tab from: http://www.guitartabs.cc/tabs/f/funeral_for_a_friend/bullet_theory_btab.html ]
Gb|---------------------------------------
Db|---------------------------------------
Ab|--------------------------------------- x1
Db|-0-0-0-300600306036-0-0-0-300600306077-

Gb|----------------
Db|----------------
Ab|---------------- x4
Db|-8-----------10-


Chorus (01:39)
Gb|----------------------------------------------------------------
Db|----------------------------------------------------------------
Ab|---------------------------------------------------------------- x1
Db|-8-8-8-8--8-10---10---10-10--10-10-12-12--12-12---12---12-12-12-

Gb|------------------------------------------------
Db|------------------------------------------------
Ab|------------------------------------------------ x1
Db|-8-8-8-8--8-10---10---10-10--10-10-12-12--12-12-

Gb|----------------------------------------------------------------
Db|----------------------------------------------------------------
Ab|---------------------------------------------------------------- x1
Db|-8-8-8-8--8-10---10---10-10--10-10-12-12--12-12---12---12-12-12-

Gb|------------------------------------------------
Db|------------------------------------------------
Ab|------------------------------------------------ x1
Db|-8-8-8-8--8-10---10---10-10--10-10-12-12--12-12-


Bridge (02:07)
Gb|-------------------------------
Db|-------------------------------
Ab|------------------------------- x4
Db|-0-/12-0-/12-0-/12-0-/12-0-0-0-

Gb|---------------------
Db|---------------------
Ab|--------------------- x8
Db|-0--0--0--0--0-0-0-0-


Chorus (02:56)
Gb|----------------------------------------------------------------
Db|----------------------------------------------------------------
Ab|---------------------------------------------------------------- x1
Db|-8-8-8-8--8-10---10---10-10--10-10-12-12--12-12---12---12-12-12-

Gb|------------------------------------------------
Db|------------------------------------------------
Ab|------------------------------------------------ x1
Db|-8-8-8-8--8-10---10---10-10--10-10-12-12--12-12-

Gb|----------------------------------------------------------------
Db|----------------------------------------------------------------
Ab|---------------------------------------------------------------- x1
Db|-8-8-8-8--8-10---10---10-10--10-10-12-12--12-12---12---12-12-12-

Gb|-------------------------------------------------
Db|-------------------------------------------------
Ab|------------------------------------------------- x1
Db|-8-8-8-8--8-10---10---10-10--10-10-12-12--12-12~-
Comments