Funeral For A Friend - All The Rage Chords & Tabs

 

All The Rage Chords & Tabs

Funeral For A Friend Chords & Tabs

Version: 2 Type: Tab 0 ratings
1 star 2 stars 3 stars 4 stars 5 stars
comments

All The Rage Tab

   
SONG: All The Rage
BAND: Funeral For A Friend
ALBUM: Hours
AWESOMENESS: 7200+

Here's All The Rage, hopefully it's All The Right.. notes. Yeah, that was a poor attempt
at a joke. But this song is incredible and some of the riffs are VERY tough, so keep
trying and you'll get them :)

Comments are encouraged and welcomed. emoluke@gmail.com

-------------
Kris Roberts:
-------------

Intro/Verse

eb|--------------------------------------------------------|
Bb|--------------------------------------------------------|
Gb|-----9------------7-------------------------------------|
Db|-9---------------------------9------9-------12----------|
Ab|-7-7---7-9h10-7-7---7-9h10-7---7------10-------10-------|
Db|---------------------------------10------10-------10-10-|
      .   .      . .   .      .   .                  .  .

eb|--------------------|-----------------|
Bb|--------------------|-------------(7)-| (Alternate these two endings
Gb|-----------12p11----|-----(7)---------|  when playing this riff).
Db|------12---------12-|-(7)-----(7)-----|
Ab|-9-10----9----------|-----------------|
Db|--------------------|-----------------|
            .

Pre-Chorus

eb|----------------------------------------|
Bb|----------------------------------------| (Play this riff twice,
Gb|----------------------------------------|  then the one below
Db|--------------------------------7777777-|  twice).
Ab|-2-2p0-000-2-2p0-000-2-2p0-0000-5555555-|
Db|-2-2p0-000-2-2p0-000-2-2p0-0000---------|
          ...       ...       .... .......

eb|----------------------------------------------------------|
Bb|-------------------------------------10-10-10-10-10-10-10-|
Gb|-------(777)-------(777)-------(777)--x--x--x--x--x--x--x-|
Db|-------(777)-------(777)-------(777)--7--7--7--7--7--7--7-|
Ab|-2-2p0-------2-2p0-------2-2p0----------------------------|
Db|-2-2p0-------2-2p0-------2-2p0----------------------------|

Pre-Chorus Part Two

eb|--------------------------------------------|
Bb|-----------------------10-10-10-10-10-10-10-|
Gb|-5-55-------------------x--x--x--x--x--x--x-|
Db|-5-55-5-55--------------7--7--7--7--7--7--7-|
Ab|-3-33-5-55-2-22p0-0000----------------------|
Db|------5-55-2-22p0-0000----------------------|
                     ....

eb|--------------------------------------------|
Bb|-----------------------10-10-10-10-12-12-12-|
Gb|-5-55-------------------x--x--x--x--x--x--x-|
Db|-5-55-5-55--------------7--7--7--7--9--9--9-|
Ab|-3-33-5-55-2-22p0-0000----------------------|
Db|------5-55-2-22p0-0000----------------------|
                     ....

Chorus

eb|---------------------------------------------------------------------|
Bb|---------------------------------------------------------------------|
Gb|---------------------------------------------------------------------|
Db|-10--10-10-10-10-10-10-10-10-10-10-12--12-12-12-12-12-12-12-12-12-12-|
Ab|-10--10-10-10-10-10-10-10-10-10-10-12--12-12-12-12-12-12-12-12-12-12-|
Db|-10--10-10-10-10-10-10-10-10-10-10-12--12-12-12-12-12-12-12-12-12-12-|

eb|-----------------------------------------------|
Bb|-----------------------------------------------|
Gb|--------------------------------------12-------| (Play the chords
Db|--------------12----------------12----------12-|  above twice, then
Ab|-10-----10----------------10-------------------|  each of these riffs
Db|-10--10----10----10-10-10----10----10----10----|  once).
        .     .     .  .  .     .     .     .
[ Tab from: http://www.guitartabs.cc/tabs/f/funeral_for_a_friend/all_the_rage_tab_ver_2.html ]
eb|-----------------------------------------------|
Bb|-----------------------------------------------|
Gb|--------------------------------------9h11h12--|
Db|--------------12----------------12-------------|
Ab|-12-----12----------------10h12----------------|
Db|-12--12----12----12-12-12----------12----------|
        .     .     .  .  .           .

Bridge

eb|-----------------------------------------------------------|
Bb|-----------------------------------------------------------|
Gb|-----------------------------------------------------------|
Db|-2--2-2--2-2-5--5-5--5-5-10--10-10--10-10-10--10-12--12-12-|
Ab|-2--2-2--2-2-5--5-5--5-5-10--10-10--10-10-10--10-12--12-12-|
Db|-2--2-2--2-2-5--5-5--5-5-10--10-10--10-10-10--10-12--12-12-|


-------------
Darran Smith:
-------------

Intro/Verse

eb|----------------------------------------------------|
Bb|----------------------------------------------------|
Gb|-9-99999999999999-11-11111111111111-12121212-141414-|
Db|-x-xxxxxxxxxxxxxx--x--x-x-x-x-x-x-x--x-x-x-x--x-x-x-|
Ab|-7-77777777777777--9--9-9-9-9-9-9-9-10101010-121212-|
Db|----------------------------------------------------|

Pre-Chorus

eb|-----------------------------------------|
Bb|-----------------------------------------| (Play this riff twice,
Gb|--------------------------------11-9-7/9-|  then the one below
Db|---------------------------------x-x-x-x-|  twice).
Ab|-2-2p0-000-2-2p0-000-2-2p0-0000--9-7-5/7-|
Db|-2-2p0-000-2-2p0-000-2-2p0-0000----------|
          ...       ...       ....

eb|-----------------------------------------------------------|
Bb|-----------------------------------------------------------|
Gb|-12-1212-x-x-x--12-1212-x-x-x--12-1212-x-x-x-x-14-12-11/12-|
Db|--x--x-x-x-x-x---x--x-x-x-x-x---x--x-x-x-x-x-x--x--x--x--x-|
Ab|-10-1010-x-x-x--10-1010-x-x-x--10-1010-x-x-x-x-12-10--9/10-|
Db|-----------------------------------------------------------|

Pre-Chorus Part Two

eb|--------------------------------------------------|
Bb|--------------------------------------------------|
Gb|-11-12-12-12-11-12-12-12-11-12-12-12--14-12-11/12-|
Db|--x--x--x--x--x--x--x--x--x--x--x--x---x--x--x--x-|
Ab|--9-10-10-10-9-10-10--10--9-10-10-10--12-10--9/10-|
Db|--------------------------------------------------|

eb|-----------------------------------------------------------|
Bb|-----------------------------------------------------------|
Gb|-11-12-12-12-11-12-12-12-11-12-12-12--14-14-14-14-16-16-16-|
Db|--x--x--x--x--x--x--x--x--x--x--x--x---x--x--x--x--x--x--x-|
Ab|--9-10-10-10-9-10-10--10--9-10-10-10--12-12-12-12-14-14-14-|
Db|-----------------------------------------------------------|

Chorus

eb|---------------------------------------------------|
Bb|-13-12--------13-12--------13-12-------------------|
Gb|-------12-----------12-----------12----------------|
Db|----------12-----------12-----------12-10-12-12-12-|
Ab|---------------------------------------------------|
Db|---------------------------------------------------|

eb|-------------------------------------------------|
Bb|-------------------------------------------------|
Gb|-12-14-14-16-16-17-17-19-19-17-17-16-16-14-14-12-|
Db|--x--x--x--x--x--x--x--x--x--x--x--x--x--x--x--x-|
Ab|-10-12-12-14-14-15-15-17-17-15-15-14-14-12-12-10-|
Db|-------------------------------------------------|

Bridge

eb|------------------------------|
Bb|------------------------------|
Gb|-12-11-----12-11--------------|
Db|-------12--------12--10-12-12-|
Ab|------------------------------|
Db|------------------------------|

eb|------------------------------|
Bb|-13-12-----13-12--------------|
Gb|------------------------------|
Db|-------12--------12--10-12-12-|
Ab|------------------------------|
Db|------------------------------|
Comments