Funeral Dress - Nightmares Chords & Tabs

 

Nightmares Chords & Tabs

Funeral Dress Chords & Tabs

Version: 1 Type: Tab

Nightmares Tab

Song: Nightmares
Artist: Funeral Dress
Tabbed by: Taylor
Tuning: Standard

Intro/Verse: if your playing the TOTALLY DRESSED version, palm mute this part
e|---------------------------------------------------------------------|
B|---------------------------------------------------------------------|
G|---------------------------------------------------------------------|
D|-9-9-9-9-9-9-9-9-9-9-9-9-9-9------------------------------------1010-|X2
A|-7-7-7-7-7-7-7-7-7-7-7-7-7-7--9-9--1010101010101010101010101010-8-8--|
E|------------------------------7-7--8-8-8-8-8-8-8-8-8-8-8-8-8-8-------|
[ Tab from: http://www.guitartabs.cc/tabs/f/funeral_dress/nightmares_tab.html ]
Lead:above x2 then this X5
e|--15--10--12-12-1212--|--15--12--15--12--10------10-10-10--------------|
B|----------------------|----------------------12-----------12-10-8-10^--|
G|----------------------|------------------------------------------------|
D|----------------------|------------------------------------------------|
A|----------------------|------------------------------------------------|
E|----------------------|------------------------------------------------|

Chorus:
e|---------------------------------------|
B|---------------------------------------|
G|---------------------------------------|
D|---------------1010-9-9-9-9-9-9-9-9-9--|
A|--9-9-9-9-9-9--8-8--7-7-7-7-7-7-7-7-7--|
E|--7-7-7-7-7-7--------------------------|

Order:
Intro
Verse
Chorus
Verse 2
Chorus
Intro
Chorus
Verse 3
Chorus
Chorus