Funeral Dress - Come On Follow Chords & Tabs

 

Come On Follow Chords & Tabs

Funeral Dress Chords & Tabs

Version: 1 Type: Tab

Come On Follow Tab

Song: Come On Follow
Artist: Funeral Dress
Album: Come On Follow

Tabbed by: Taylor Sellers
Email: NoFX@herzeleid.net

Tuning: Standard
[ Tab from: http://www.guitartabs.cc/tabs/f/funeral_dress/come_on_follow_tab.html ]
Intro - Play Twice
e||----------------------------------------------|
B||----------------------------------------------|
G||----------------------------------------------|
D||----------------------------------------------|
A||-----8-8-6-5-6-5------------------------------|
E||--6--------------8-8~~--88-10-8-6~-10-8-6-66--|

   ----------------------------------------------||
   ----------------------------------------------||
   ----------------------------------------------||
   ----------------------------------------------||
   -----8-8-6-5-6-5------------------------------||
   --6--------------8-8~~--88-10-8-6-5-6~~~~-----||

this is the intro to "Come On Follow" i think it might start out on the "A" string...if 
just move everything up one string. ill figure out the rest later...