Fun Loving Criminals - Scooby Snacks Chords & Tabs

 

Scooby Snacks Chords & Tabs

Fun Loving Criminals Chords & Tabs

Version: 1 Type: Tab 0 ratings
1 star 2 stars 3 stars 4 stars 5 stars
comments

Scooby Snacks Tab

   
#----------------------------------PLEASE NOTE---------------------------------#
#This file is the author's own work and represents their interpretation of the #
#song. You may only use this file for private study, scholarship, or research. #
#------------------------------------------------------------------------------#

SCOOBY SNACKS

H - hammer on
P - pull off

Opening...
This is the opening that is tabbed pretty badly on the normal version of Scooby Snacks tab, here\'s the way Huey plays it...

------------5----5---------5-----------------------------------------
----------6-------6---------5----------------------------------------
--------7----------7---------7----------(5h7P5)----------------------
------7-------------7---------7--------------------------------------
----5----------------------------------------------------------------
---------------------------------------------------------------------

Part in brackets played only last time
[ Tab from: http://www.guitartabs.cc/tabs/f/fun_loving_criminals/scooby_snacks_tab.html ]
---------------------------------------------------------------------
----------X-X--------------------------------------------------------
-7---7-----X-X-------------------------------------------------------
-7---7-----X-X-------------------------------------------------------
-5---------X-X-------------------------------------------------------
---------------------------------------------------------------------


E
A.......7....X.X..............5...................10..................5....3
D..7....7....X.X..............5.....X.X...........10.....X.X..........5....3
G..7....7....X.X....7...7.....5.....X.X....10.....10.....X.X....5.....5....3
B..5.........X.X....7...7...........X.X....10............X.X....5
E...................5...5...........X.X.....8............X.X....3

Me and Fast got the gats, we out to rob a bank, we got Steve outside...


------------5----5---------5-----------------------------------------
----------6-------6---------5----------------------------------------
--------7----------7---------7---------------------------------------
------7-------------7---------7--------------------------------------
----5----------------------------------------------------------------
---------------------------------------------------------------------

This part played when \"I said baby, baby, baby\" comes up.
Comments