Fun - Carry On Chords & Tabs

 

Carry On Chords & Tabs

Fun Chords & Tabs

Version: 3 Type: Tab 0 ratings
1 star 2 stars 3 stars 4 stars 5 stars
comments

Carry On Tab

I've tabbed this solo on three different combinations of strings.
It should be exactly the same as the music video.

|-------------------------------------------------|
|-------------------------------------------------|
|-------------------------------------------------|
|//15--------15--------17--------b18*----17-15-15-|
|------17-15-----17-15-----17-15------------------|
|-------------------------------------------------|
*bend a little flat of 19

E|----------------------------------------------|
B|----------------------------------------------|
G|-17-17-17-15-------------17-17-17-15----19-17-|
D|-------------19-17-15----------------19-------|
A|----------------------------------------------|
E|----------------------------------------------|

E|-----------------------------------|
B|------------------------------//6--|
G|----------------OR--//10--OR-------|
D|-3----3---//15---------------------|
A|----3---3--------------------------|
E|-----------------------------------|

Alternatively:
[ Tab from: http://www.guitartabs.cc/tabs/f/fun/carry_on_tab_ver_3.html ]
E|-------------------------------------------------|
B|-------------------------------------------------|
G|//10--------10--------12--------b13*----12-10-10-|
D|------12-10-----12-10-----12-10------------------|
A|-------------------------------------------------|
E|-------------------------------------------------|
*bend a little flat of 14

E|---------------------------------------------|
B|-13-13-13-11------------13-13-13-11----15-13-|
G|-------------14-12-10---------------14-------|
D|---------------------------------------------|
A|---------------------------------------------|
E|---------------------------------------------|

E|-----------------------------------|
B|------------------------------//6--|
G|----------------OR--//10--OR-------|
D|-3----3---//15---------------------|
A|----3---3--------------------------|
E|-----------------------------------|


Alternatively:

E|----------------------------------|
B|//6------6------8------b9*--8-6-6-|
G|-----7-5----7-5----7-5------------|
D|----------------------------------|
A|----------------------------------|
E|----------------------------------|
*bend a little flat of 10

E|-8-8-8-6----------8-8-6----10-8-|
B|---------10-8-6---------10------|
G|--------------------------------|
D|--------------------------------|
A|--------------------------------|
E|--------------------------------|

E|-----------------------------------|
B|------------------------------//6--|
G|----------------OR--//10--OR-------|
D|-3----3---//15---------------------|
A|----3---3--------------------------|
E|-----------------------------------|
Comments