Fullwinsor - Water's Edge Chords & Tabs

 

Water's Edge Chords & Tabs

Fullwinsor Chords & Tabs

Version: 1 Type: Tab 0 ratings
1 star 2 stars 3 stars 4 stars 5 stars
comments

Water's Edge Tab

   
Water's Edge w/(stage directions)

[Dave "slides down" sand dune and looks around hearing]

[band is underwater, settings vv]
[on squier amp, gain full treble half middle 4 bass 9, presence as desired]
[Lead Bass, Lead gtr(pwrcrd ver.), rythm bass, repeat 3-5x]
[Intro 1]
G-------------------------------------------------------------------
D-------------------------------------------------------------------
A---7-po5h7-po5h7rrrr--/9h10p9r--po5h7-po5h7-5----------------------
E-----------------------------------------------8rrp7p5-------------

G-------------------------------------------------------------------
D-----------------------------------------------8b9-----------------
A---7-po5h7-po5h7rrrr--/9h10p9r--po5h7-po5h7-5----------------------
E-------------------------------------------------------------------

Drums.... alot of hi hat and triplet drum rolls follow rythm

[dave cotinues to walk down towards the water, sees a hedge,
trips, falls-forward, slo-mo, music slows, stops, then music]

[kate plays chords, on rockorgan or guitar, settingsvv, repeat riff 3x]
[Lead Chords, Treble full, middle middle, bass low-off, presence none]
[Intro 2]
  Dm      Am       C      Bb
E-1-----------------------1----------------------------------------
B-3-X7----1-X7-----1-X7---3-X7-------------------------------------
G-2-------2--------0------3----------------------------------------
D---2h3---2--2h3---2------3----------------------------------------
A---^^-------------3-2h3--1----------------------------------------
E---8th notes------------------------------------------------------
  beats for chords goes qtr qtr 8th 8th triplet triplet triplet 

[Dave looks up and smiles during Dm, walks towards the water,
rythm bass comes in, muting swung 16ths, Lead gtr comes in swung 16ths
"swung notes" are mutes]

[Intro 2]
E-------------------------------------------------------------------
B-------------------------------------------------------------------
G-------------------------------------------------------------------
D--5x5x5x5--8x8x8x8--3x3x3x3-5x4x--x-----------x---------6----------
A--3x3x3x3--5x5x5x5--1x1x1x1-3x2x--x--3rd time-x-becomes-6----------
E----------------------------------x-----------x---------4----------
[After last pwrchord (mike and chris raise guitars aim at the camera 
and pluck the pwrchord), water slpits, dave starts to fall,
now all of the following happens all at once riff previously played
with mutes, is now played fully, amp setting shave to change so, all
have the "Lead Setting", we are no longer underwater to dave, maybe
use a chord transition from kate, or small solo while someone adjusts
amps, then after one riff that goes thru, dave sings verse 1, 
nearing end of verse 1, special slide, to powerchord(dave hits the
ground when pwrcrd tis played, silence, thru daves eyes, we see blurry
images of the band looking over him, waving, saying are u alright, that
kind of thing, then someone helps him up and he looks at us, our
backs are turned, setting up instruments again,then he zones out and
hears the chorus riff played, he sings the chorus to us,
explaining what just happened, we play]

[Chorus 1 not finalized yet]
[ Tab from: http://www.guitartabs.cc/tabs/f/fullwinsor/waters_edge_tab.html ]
E-----------------|-------------|----------------|------------------
B-----------------|-------------|----------------|-------------1-4/-
D-----------------|-------------|----------------|-------1-3-4------
G-----------------|---2-3-3-3-4/|-3-p^1----------|-3-p^1------------
A-33-2-3-333-2----|-33--------x/|-------3-2-1----|------------------
E--------------3h0|-------------|-------------4-1|------------------

[Gtr 1 solo] -=1/32nd
E-------------------------1-4----------------------------7-10-------
B---------------------1-4---------------------------7-10------------
G---------------1-3-4------------------------7-9-10-----------------
D-----------1-3--------------------------7-9------------------------
A-----1-2-3------------------------7-8-9----------------------------
E-1-4-------------------------7-10----------------------------------
during the solo daves freaking out, hands grasping his head, cant take w/e it is
E--------------------------------------13-16---13h16---p15------
B-------------------------------13-16--------16------16----1515h18
G----------------------13-15-16----------------------------------
D----------------13-15-------------------------------------------
A-------13-14-15-------------------------------------------------
E-13-16----------------------------------------------------------
camera zooms in and out panning in/out of water, dave falls to knees
E-15h171717171717-17h19---p16/17h19p17h19p17r----17-19-17-19-21=vbbt.........
B-------------------17--19-------17--------19btb----------------
G----------------------------------------------------------------
D----------------------------------------------------------------
A----------------------------------------------------------------
E----------------------------------------------------------------
dave finally  collapses, beat                      >>>slow>>repeat till done

B----------------|---10-------------------------------------------
G----------------|-----7h8h9-7p6p5--------------------------------
D----------------|-7----------------------------------------------
A----------------|------------------------------------------------
E----------------|--------------------------------------------->>repeat till done

[Bridge 2]back to the "not so underwater scene"
dave struggles to get up then collapses, zoom in on dave so all camera sees is darkness
then gets a "heart beat" with eds bass drum
E----------------------------------------------------------------
B----------------------------------------------------------------
G--bass2-4-------------------------------------------------------
D--bass1-2-2-----------------------------------------------------
A--gtr-1---^-----------------------------------------------------
E----------------------------------------------------------------
hit 6 times and crash on the last ed keep only the bass drum going like a heartbeat
then symbal crash, and simmer down on the symbol...

[Chorus 1]dave, now standing is trying to shake off his old demons, during this
"phsycodellic solo" and we see daves churnign face as a water mark as the past scene rolls
through, fast forwarded
[Solo 2 wah wah and reverb-anyone take it, make it]

[Verse 3 the one to rule them all]

dave reaches the end of the sea pit and starts to ascend up the cost line during this part
dramatic camera angles of the band or dave far and close w/ and w/out dave, in and out of water

no music written yet for these parts check out wwww.xanga.com/fullwinsor fo the full update
Comments