Fugazi - Waiting Room Chords & Tabs

 

Waiting Room Chords & Tabs

Fugazi Chords & Tabs

Version: 3 Type: Bass Tab

Waiting Room Bass Tab

The other versions were okay, but the chorus was completely screwed up and the intro was 
bit simplified.  So here's my version.  I'm certain it's a hundred percent correct.

KEY: h = hammer on
     * = ring

Intro:
G-----2-------2---------------|
D---2---4-4-4---4-------------|
A-4---------------4-4-4-4-4-4-|  X1
E-----------------------------|

G-------------2---------------|
D-2-h3-h4-4-4---4-------------|
A-----------------4-4-4-4-4-4-|  X3
E-----------------------------|


Verse (Most of the time it's all 4s, but sometimes he throws that G2 in there instead of 
fifth D4):
G---------(2)----------------------------|
D-4-4-4-4----(4)-4-4-4-------------------|
A------------------------4-4-4-4-4-4-4-4-|
E----------------------------------------|

[ Tab from: http://www.guitartabs.cc/tabs/f/fugazi/waiting_room_btab_ver_3.html ]
Chorus:
G-1-1-1-----------------------|
D---------------4-4-4---------|
A-------2-2-2-2-------2-2-2-2-|
E-----------------------------|

G---------------------------------|
D-4-4-4-4-4-4-4-4-----------------|
A-----------------4-4-4-4-4-4-4-4-|  X2
E---------------------------------|

(The D2 and D3 are synchronized with the singer saying "can't" and "get", respectively.  
should be synchronized with the first D4 of the verse bass line.  So he says "can't get 
and on "up", you should be playing the verse again.)
G---------------------------------|
D-2*****-----2-3------------------|
A---------------------------------|
E---------------------------------|


The chorus repeats itself a bit (strangely) at the end.  Just listen to it and you'll be able
to get it.

Let me know if there are any problems.  You can e-mail me at NarwhalSoup@ameritech.net.