Fugazi - Great Cop Chords & Tabs

 

Great Cop Chords & Tabs

Fugazi Chords & Tabs

Version: 1 Type: Tab 0 ratings
1 star 2 stars 3 stars 4 stars 5 stars
comments

Great Cop Tab

Song: Great Cop
Artist: Fugazi
Tabber: Jake Thorn

Hey punks
Fugazi rules... anyone who can stay so popular for so long without selling out deserves some serious respect.  Anyway, this is a great song, a lot of fun to play.  This is just a basic guide to it... it'll be easy to figure out the details for yourself cuz you're a smart kid right?

Okay, so this is how it starts out (the bass/gtr intro part)
E|----------------------------------------------------------------|
B|----------------------------------------------------------------|
G|----------------------------------------------------------------|
D|–999------------------------------------------------------------| 
A|-999–x4---------------------------------------------------------| 
E|-777------------------------------------------------------------| 
[ Tab from: http://www.guitartabs.cc/tabs/f/fugazi/great_cop_tab.html ]
Then you play this a bunch of times...
E|----------------------------------------------------------------|
B|----------------------------------------------------------------|
G|----------------------------------------------------------------|
D|-7--2--7--2---999-----------------------------------------------| 
A|-7--2--7--2---999-----------------------------------------------| 
E|–5--0--5--0—--777-----------------------------------------------|

Then it's something like this (perfect the strumming on your own)
E|-------------------------------------------|-then-----------a------|
B|-------------------------------------------|--I-------------bunch--|
G|-66--------4-------------------------------|-play------------0f ---|
D|-66–22-444-4-a few times...change up strum-|-this– 4-4-------times-| 
A|-44–22-444-2--pattern for down beats...----|-thing–4—---4–4--------| 
E|----00-222---------------------------------|-------2-----2---------|

Go back to the first riff () for awhile... then back to the other riff.

Then you do this kind of palm muting thing... listen to the song to get a feel for it... 
it's not that hard if you're intimidated... as long as you get the basic notes right, 
it doesn't really matter what you play

Then the other riff (7-2-7-2--9) finishes it all up.

Good luck and Fugazi rules!

Comments