Fugazi - Break Chords & Tabs

 

Break Chords & Tabs

Fugazi Chords & Tabs

Version: 1 Type: Tab 0 ratings
1 star 2 stars 3 stars 4 stars 5 stars
comments

Break Tab

   
Band  : Fugazi
Album : End Hits ('1998)
Song  : Break (Track #1/13)

My first tab 
Drop D#
1. intro

-x--x--x--x--x--x-x-x-x-x-x-x
-x--x--x--x--x--x-x-x-x-x-x-x
-4--4--4--4--4--x-x-x-x-x-2-2
-4--4--4--4--4--x-x-x-x-x-2-2
-2--2--0--2--2--0-4-4-4-4-0-0
-x--x--x--x--x--x-2-2-2-2-x-x   

2 main
[ Tab from: http://www.guitartabs.cc/tabs/f/fugazi/break_tab.html ]
-x--x--x--x--x--x--x--x--x--x
-x--x--x--x--x--x--x--x--x--x
-x--x--x--x--x--x--x--x--x--x
-4--4--0--x--x--x--3--3--3--0
-2--2--0--5--5--0--1--1--1--0
-x--x--x--3--3--0--x--x--x--x



3. 

-x----x---x-
-x----x---x-
-4----4---5-
-4----4---5-
-2----2---3-
-x----x---x- x 2


4 (palm muted)

-x--x--x--x--x--x
-x--x--x--x--x--x
-4--4--4--4--4--4
-4--4--4--4--4--4
-2--2--2--0--0--0
-x--x--x--x--x--x

5 bridge

-x--x--x--x-
-x--x--x--x-
-7--x--x--8-
-7--5--6--8-
-5--5--6--6-
-x--3--4--x- repeat


6 outro

-x--x--x--x--x
-x--x--x--x--x
-4--4--2--4--5
-4--4--2--4--5
-2--2--0--2--3
-x--x--x--x--x x 2


((all work scribed by Robert Quick ))
Comments