Fuel - Wont Back Down Chords & Tabs

 

Wont Back Down Chords & Tabs

Fuel Chords & Tabs

Version: 1 Type: Tab 0 ratings
1 star 2 stars 3 stars 4 stars 5 stars
comments

Wont Back Down Tab

   
Tabbed by Zaheer Mohammed

Intro (Repeat as needed)
Heavy Distortion
E |----|
B |----|
G |----|
D |----|
A |----|
D |-10-|

Chorus 2x
Distortion
E |-------------------------------------|
B |-------------------------------------|
G |-------------------------------------|
D |--10-8-6---8---3-x-x-x-x-3-3--3-3h1--|
A |--10-8-6---8---3-x-x-x-x-3-3--3-3h1--|
D |--10-8-6---8---3-x-x-x-x-3-3--3-3h1--|
[ Tab from: http://www.guitartabs.cc/tabs/f/fuel/wont_back_down_tab.html ]
Verse 4x
I think the verse is only bass with effects but I play it with
delay, phaser, and delay.  

E |----------------------|
B |----------------------|
G |--5-5-----3-----3-----|
D |--5-5--1--3--1--3--6--|
A |--3-3--1--1--1--1--6--|
D |-------1-----1-----6--|

Bridge 4x
Distortion
E |---------------------------|
B |---------------------------|
G |--------3---------8--------|
D |--6--1--3--6---6--8--8--6--|
A |--6--1--1--6---6--6--8--6--|
D |--6--1-----6---6-----8--6--|

Fill to Final Chorus
Distortion
E |-----------|
B |-----------|
G |-----------|
D |--10-8-10--|
A |--10-8-10--|
D |--10-8-10--|
Comments