Fuel - Sunburn Chords & Tabs

 

Sunburn Chords & Tabs

Fuel Chords & Tabs

Version: 1 Type: Tab 0 ratings
1 star 2 stars 3 stars 4 stars 5 stars
comments

Sunburn Tab

   
Fuel - Sunburn
Standard Tuning

This is Sunburn by Fuel.  A great song, can be played acoustic or 
electric.  It is 100% correct.

Dnnythms - http://www.geocities.com/allkimsmith

Intro/Verse:
e|------0----------0----------------------------------------0----0----|
b|------3---3------2-------2------2-------3p2-------3--3--3------2----|
g|------0------0---2----------------2---------2-----0------------2----|
d|------2----------2----------0h2-----0h2-----------2------------2----|
a|------2----------0-----0--------------------------2------------0----|
D|--0--------------------------------------------0--------------------|
       rake                                        rake

                                           2nd guitar ->  e  ---12----|
                                           (harmonics)    b  -12------|
                                                          g  ---------|
[ Tab from: http://www.guitartabs.cc/tabs/f/fuel/sunburn_tab.html ]
Chorus:
e|------------------------------------------|
b|----------------0-------------------------|
g|-------0--------0--- repeat a few times --|
d|---------0----0---------------------------|
a|---3/5-----3------------------------------|
D|------------------------------------------|

then:
e|------------------------------------------|
b|--------------0-0-0-0-0----3---3----3-3---|
g|-------0------0-0-0-0-0----2---2----2-2---|
d|---------0----2-2-2-2-2----0---0----0-0---|
a|---3/5-----3--3-3-3-3-3----0---0----0-0---|
D|------------------------------------------|

then:
e|------0-0--0-------0-----0---------0--0--3---2--|
b|------0-0--1---3-----3-----3---0---1--1--1---3--|
g|------0-0--0---2-------2-----2-----2--2--2---2--|
d|------2-2--2---0-------------------2--2--2---0--|
a|------2-2--3---0-------------------0--0--0------|
D|--0---0-0---------------------------------------|


Bridge:
Am Em   Am Em  Am Em  C D
Comments