Fuel - Sunburn Chords & Tabs

 

Sunburn Chords & Tabs

Fuel Chords & Tabs

Version: 1 Type: Bass Tab 0 ratings
1 star 2 stars 3 stars 4 stars 5 stars
comments

Sunburn Bass Tab

FUEL - SUNBURN
BASS TABLATURE

STANDARD TUNING

When I sat down to tab this song i didn't realise it had so many fills in it.
But never fear the fills arent that hard, they still sound kewl though. This band
rocks and I hope to see lots of you bass folk out there learning more songs like this
ROCK ON
MATT


INTRO

G-----------------------------| 			G-----------|
D-----------7-----------------| 			D-----------|
A-----------------------5-5h7-| first time 		A-----5h7---|  second time
E--0--3--5------5-5h7-8-------| 			E--0-------5|


VERSE 

G-----------------------------| 		G-----------------------|
D-----------7-----------------| 		D------------7----------|
A-----------------------5-5h7-| first time 	A-----5h7--------------5|  second time
E--0--3--5------5-5h7-8-------| 		E--0-------5-----0-5h7--|

The fills change a little but thats basically it

PRE-CHORUS
[ Tab from: http://www.guitartabs.cc/tabs/f/fuel/sunburn_btab.html ]
 play b4 all    1st time    2nd time    3rd Time
G-------------| |-----4|  |-----/16-|  |-------|
D-------------| |---5--|  |---5-----|  |-------|
A--3-3h5p3----| |-3----|  |-3-------|  |-3--5--| 
E-------------| |------|  |---------|  |-------|

CHORUS

G--------------------------| |----------------|
D-------------------5-4----| |----------------|
A--------3--5---5h7-----7-5| |--------------5-|
E--0--0--------------------| |--5-5-5-3h5-5---|


Fill into breakdown
G---------|
D---------|
A--5-3-2--|
E--------5|

BREAKDOWN

G------|                            |------------|
D------|  with breakdown fill  X3   |------------|
A------|                            |--3--5---/17|
E--5--0|                            |------------|

well thats about it, i hope you can all follow it
Any queries comments, praises, death threats to Tsepesh18@hotmail.com
Tabbed by Matt Bliesner
Comments