Fuel - Something Like Human Chords & Tabs

 

Something Like Human Chords & Tabs

Fuel Chords & Tabs

Version: 1 Type: Tab 0 ratings
1 star 2 stars 3 stars 4 stars 5 stars
comments

Something Like Human Tab

   
Band- Fuel
Album- Something Like Human

1.LAST TIME
Tuning- Drop D

Intro (alternate between the two a few times)
    ----------9----------------------|
    ---------10----------------------|
    --11-----11----------------------|
    --11-----11----------------------|
    --9---0---9----------------------|
    --9---0--------------------------|
Verse - play the first chord of the intro and then play the intro

Breakdown
    -------------------------------------|
    -------------------------------------|
    -------------------------------------|
    -xxxxxxxxxxxx-2--xxxxxxxxxxxx--------|repeat
    -xxxxxxxxxxxx-2--xxxxxxxxxxxx----2x--|
    -xxxxxxxxxxxx-2--xxxxxxxxxxxx--------|

--------------------------------------------

2.HEMORRHAGE IN MY HANDS
Tuning- Down 1/2 Step

Verse
    ---------0---------------0----------------0---------------0-------|
    -------3---3-----------3---3------------3---3-----------3---3-----|
    -----0-------0-------0-------0--------0-------0-------0-------0---|
    ---4--------------4------------4----4---------------4-----------4-|
    --2-------------0---------------------------------0---------------|
    ---------------------------------3--------------------------------|
Prechorus - "Don't fall away"
     Em D     A
    -------(2)------------------|
    --------3-----2-------------|
    --------2-----2-------------|
    --2-----0-----2-------------|
    --2-----------0-------------|
    --0-------------------------|
Chorus - "in my hands" (it sounds like they play the G as a power chord)
          G   D      A
    ------3------(3)-------------|
    ------3-------3------2-------|
    ------0-------2------2-------|
    ------0-------0------2-------|
    ------2--------------0-------|
    ------3----------------------|
Right after chorus and also played under the 2nd verse
    B   A   G   A
Solo
    -------19---19-------------------19--19--19-------------------------|
    -19--19---19-----------------------19--19--19-----------17---17-17--|
    ---16----------16-16-19-18-18-18--------------16--16-14----14-------|
    ------------------------------------------------16------------------|
    --------------------------------------------------------------------|
    --------------------------------------------------------------------|
    ----14-------14-------14-------14-------14-------14-17-19-14-15-----|
    -15----15-14----14----------14----14-15----15-17--------------------|
    -------------------16----16-----------------------------------------|
    --------------------------------------------------------------------|
    --------------------------------------------------------------------|
    --------------------------------------------------------------------|

"And I wanted, you turned away"
    -------------------------------------------------------------|
    -------------------------------------------------------------|
    ------------------------------------------------------0---4--|
    ------------------------------------------------------0---3--|
    -------------------------------------------------444--2---4--|
    ----------2222-----2222-4444-5555-4b(5)-5555-7777-----2---4--|
    -3333-5555----5b(6)-----------------------------------0---2--|
Fill ( near the end)
    ----------------------------|
    ----------------------------|
    ---6-77-66-77-66---6--------|
    -----------------7---7------|
    ----------------------------|
    ----------------------------|

-------------------------------------

3.EMPTY SPACES
Tuning- Drop D
[ Tab from: http://www.guitartabs.cc/tabs/f/fuel/something_like_human_tab.html ]
Intro - play a few times
    ------------------------------------|
    ------------------------------------|
    -------------------2----------------|nd time end with
    --0-0-0-0--3-3-3-3-------6----------|
    --0-0-0-0--3-3-3-3-------6----------|
    --0-0-0-0--3-3-3-3-------6----------|
Verse
    -----------------------------|
    -----------------------------|
    -----------------------------|
    -0-0--0-0--0-0--0-0--0-------|
    -0-0--0-0--0-0--0-0--0-------|
    -0-0--0-0--0-0--0-0--0-------|
Chorus
    -----------------------------|
    -----------------------------|
    -----------------------------|
    --0---3---8---5----2x--------|
    --0---3---8---5--------------|
    --0---3---8---5--------------|
Right after chorus
    -----------------------------|
    -----------------------------|
    --------------------5--------|
    -0--2--8---0--2--5--5--------|
    -0--2--8---0--2--5--3--------|
    -0--2--8---0--2--5-----------|

Breakdown
    -----------------------------|
    -----------------------------|
    -----------------------------|
    -----------------------------|
    -----3---2-------------------|
    -0-0---0---0-3-0-2-3-2-------|

-----------------------------------------

4.SCAR
Tuning- Drop D

Intro and Verse
    ------------------------------|
    ------------------------------|
    ------------------------------|
    --0-0----------3-----3---3----|
    --0-0-------------------------|
    --0-0-3b(7)--0--0---0-0---0---|
Prechorus
    -----------------------------|
    -----------------------------|
    ----------------Repeat-------|
    -----5---4-4------a----------|
    -----3---2-2-----few---------|
    ---0---0-----0--times--------|
Chorus
    -----------------------------|
    -----------------------------|
    ----------------repeat-------|
    ---5--7--3--5----again-------|
    ---5--7--3--5----for 2nd-----|
    ---5--7--3--5-----chorus-----|

-------------------------------------------

5.BAD DAY
Tuning- Drop D

Intro (main riff)

    A   Asus2 A Asus2 Bm D Dm
         ^
           |
   (same as A just lift pinky)
Chorus "She swears that nothings wrong..."
    D   Bm  F#
Solo
    -----------------------------------------------|
    -----------------------------------------------|
    -------6-------------------6------------repeat-|
    ---6-7---7-6b(7)~~-----6-7---7-6b(7)~~---2x----|
    -------------------7---------------------------|
    -----------------------------------------------|

---------------------------------------------

6.DOWN
Tuning- Drop D

Intro and Verse
    -----------------------------|
    ---repeat a few times--------|
    -----------------------------|
    --0-xxxxxxx-3--3-3-3---------|
    --0-xxxxxxx-3--3-3-3---------|
    --0-xxxxxxx-3--3-3-3---------|
Background intro
    D chord, he uses a whammy pedal set up 2 octaves and goes up and down
Prechorus
    -----------------------------|
    ---repeat a few times--------|
    -----------------------------|
    --0-3-5-6--------------------|
    --0-3-5-6--------------------|
    --0-3-5-6--------------------|

----------------------------------------

7.SOLACE
Tuning- Drop D

Intro (*=harmonic)
    -----------------------------|
    -----------------------------|
    -----------------------------|
    -0-----------3x--------------|
    -0-*-*-*-*-*-----------------|
    -0-7-7-7-7-7-----------------|
Verse
    -----------------------------|
    --3---8----------------------|
    --2---7---5---4--------------|
    --0---5---5---4--------------|
    --0---5---3---2--------------|
    --0---5----------------------|
Breakdown
    -----------------------------|
    -----------------------------|
    -----------------------------|
    --0--3/10-------0--3/7-------|
    --0--3/10-(2x)--0--3/7-(2x)--|
    --0--3/10-------0--3/7-------|

-------------------------------------

8.KNIVES
Tuning- Drop D

Intro and Verse
    -----------------------------|
    -----------------------------|
    --7--9--11--12---------------|
    -----------------------------|
    --5--7--9---10---------------|
    -----------------------------|

---------------------------------------

9.INNOCENT
Tuning- Standard

Verses
e-0-0---0---0-0-------|
B-8-8-/-10--6-4-------|
G-9-9-/-11--7-5-------|
D-9-9-/-11--7-5-------|
A-7-7-/-9---5-3-------|
E-0-0---0---0-0-------|
Satan...      you know where I lie

Chorus
e-0-----------------3-----3-2------|
B-0-----------------3-----3-3------|
G-0-----------------0-----0-2------|
D-2-----------------2-----0-0------|
A-2-----------------3-----2-0------|
E-0-----------------0-----3-0------|
  All our lives get complicated

CHANGE IN CHORUS
e-0----------------2-0-------0---2-------------------|
B-0----------------3-1-------0---3-------------------|
G-0----------------2-0-------0---2-------------------|
D-2----------------0-2-------2---0-------------------|
A-2----------------0-3-------2---0-------------------|
E-0----------------0-0-------0---0-------------------|
Never were we told  what the future would hold...

-----------------------------------

Don't know Prove,Easy,and Slow yet.
Comments