Fuel - Most Of All Chords & Tabs

 

Most Of All Chords & Tabs

Fuel Chords & Tabs

Version: 1 Type: Tab 0 ratings
1 star 2 stars 3 stars 4 stars 5 stars
comments

Most Of All Tab

   
Artist: Fuel
Song: Most Of All
Album: Natural Selection
Tabbed by Timothy Maxwell (timmax9@hotmail.com)

Dropped-D Tuning

CHORDS:
D5: 0577XX		A: 7-7-11-X-X-X		B5: 999XXX
G: 559XXX		A5: 777XXX			E5: 222XXX
G5: 555XXX		F#5: 444XXX			Bm: X2443X
Bm/A: X0443X	Gmaj7: 5X4X3X		B7sus2: X2X22X

Intro: (0:00) (elec. gtr. w/dist.) Palm muted throughout
  D5                   A
|-------------------------|----------------------|
|-------------------------|----------------------|
|-7--7--7--7--7--7--7-----|----------------------|
|-7--7--7--7--7--7--7--11-|-11-11-11-11-11-11-11-|
|-5--5--5--5--5--5--5--7--|-7--7--7--7--7--7--7--|
|-0--0--0--0--0--0--0--7--|-7--7--7--7--7--7--7--|

  B5                   G
|-------------------------|------------------------|
|-------------------------|------------------------|
|-------------------------|------------------------|
|----------------------9--|-9--9--9--9--9--9--9----|
|-9--9--9--9--9--9--9--5--|-5--5--5--5--5--5--5--0-|
|-9--9--9--9--9--9--9--5--|-5--5--5--5--5--5--5--0-| (Repeat)

VERSE 1: (0:15) (continue rhythm in intro)
D5         A             B5        G
I see your stars tonight, do you recall that light
D5        A               B5       G 
Or do you ever think of me

     And in your world somewhere, do memories rip and tear?
  D5             A              B5            G              (gtr. 2)
|--------------------|--------------------------|-------------------|
|--------------------|--------------------------|-------------------|
|-7--------------6---|----------7-------------4-|-------------------|
|-7--------------7---|----------7-------------5-|-------------------|
|-5--------------4---|------------------------5-|-------------------|
|--------------------|--------------------------|-------------------|

 the ones that always keep you hanging onto all that might have been
  D5             A              B5            G
|--------------------|--------------------------|-------------------|
|--------------------|--------------------------|-------------------|
|-7--------------6---|----------7-------------4-|-------------------|
|-7--------------7---|----------7-------------5-|-------------------|
|-5--------------4---|------------------------5-|-------------------|
|--------------------|--------------------------|-------------------|

CHORUS: (0:45)
  And I love you now, and I hate you now
  D5    A5           E5   F#5 G5
|------------------|---------------------|
|-7-----5----------|-7--------8----------|
|-7-----6----------|-7--------7----------|
|------------------|-9--------5----------|
|------------------|---------------------|
|------------------|---------------------| (gtr. 2)

(cont. gtr. 2 lead)
D5    A5           E5  G5
And I miss you most of all
D5        A5              E5        F#5 G
All those times we laughed, the scars that you left
D5       A5                 E5   F#5 G5
Still, I miss you most of all

    D5             A              B5            G
|-------------------|---------------|------------|--------------|
|-7v~---------------|---------------|------------|--------------|
|-------------------|---------------|------------|--------------|
|-------------------|---------------|------------|--------------|
|-------------------|---------------|------------|--------------|
|-------------------|---------------|------------|--------------|

VERSE 1: (1:23) (continue rhythm in intro)
D5         A             B5             G
And by the water's side, the tall grass where we lied
D5            A                    B5       G 
The nights we cried ourselves to sleep

     Most Septembers now, I break down somehow
  D5             A              B5            G              (gtr. 2)
|--------------------|--------------------------|-------------------|
|--------------------|--------------------------|-------------------|
|-7--------------6---|----------7-------------4-|-------------------|
|-7--------------7---|----------7-------------5-|-------------------|
|-5--------------4---|------------------------5-|-------------------|
|--------------------|--------------------------|-------------------|
[ Tab from: http://www.guitartabs.cc/tabs/f/fuel/most_of_all_tab.html ]
 remembering all we said, and all those dreams we never got to see
  D5             A              B5            G
|--------------------|--------------------------|-------------------|
|--------------------|--------------------------|-------------------|
|-7--------------6---|----------7-------------4-|-------------------|
|-7--------------7---|----------7-------------5-|-------------------|
|-5--------------4---|------------------------5-|-------------------|
|--------------------|--------------------------|-------------------|

CHORUS (1:53)

BRIDGE: (2:23)
             Are you somewhere,               without a care?
  Bm     Bm/A    Gmaj7  Bm/A       Bm     Bm/A    Gmaj7  Bm/A   
|--------------|-----------------|--------------|-----------------|
|-----3------3-|-----3-------3---|-----3------3-|-----3-------3---|
|--------------|---------------4-|--------------|---------------4-|
|---4------4---|---4-------4-----|---4------4---|---4-------4-----|
|-2------0-----|--------0--------|-2------0-----|--------0--------|
|--------------|-5---------------|--------------|-5---------------|

            Or are you alone as I, did you ever make it home?
  Bm     Bm/A    Gmaj7  Bm/A       G5           A5 
|--------------|-----------------|-------------|-------------|
|-----3------3-|-----3-------3---|-------------|-------------|
|--------------|---------------4-|-------------|-------------|
|---4------4---|---4-------4-----|-5---5-5-5---|-7---7-7-7-7-|
|-2------0-----|--------0--------|-5---5-5-5---|-7---7-7-7-7-|
|--------------|-5---------------|-5---5-5-5---|-7---7-7-7-7-|

GUITAR SOLO: (2:38)
  D5              A5              B5                G5
|----------------|--------------|-----------------|---------------|
|----------------|--------------|-----------------|-------------7-|
|-9-9---9-7-7----|---9----7-7-7-|-7-9-9---9-7-7-7-|-9-7-9-7-------|
|---9-7-9-7-7-11-|---9----------|-7-9-9---9-7-7-7-|---------------|
|----------------|--------------|-----------------|---------------|
|----------------|--------------|-----------------|---------------|

  D5                    A5
|-----------------9-9-|-10-10-12-12-14v~-----14--|
|-7-8-10-10-12-12-----|--------------------------|
|---------------------|--------------------------|
|---------------------|--------------------------|
|---------------------|--------------------------|
|---------------------|--------------------------|

  E5                  F#5  G5
|---15-15-14-15-14-15-14-|-(14)------------------|
|------------------------|-----------------------|
|------------------------|-----------------------|
|------------------------|-----------------------|
|------------------------|-----------------------|
|------------------------|-----------------------|

  G5        A5  G5      
|-----------12b----12-|-10--------------|----9---10---10p9---|
|---------------------|-----------------|--------------------|
|---------------------|-----------------|--------------------|
|---------------------|-----------------|--------------------|
|---------------------|-----------------|--------------------|
|---------------------|-----------------|--------------------|

INTERLUDE: (2:59)
                    And I miss you most of all
 D5                                 A
|----------------|----------------|-------------------|
|-----3-0h3---3--|---3---0h3---3--|-----2---0-h2---2--|
|---2-------2----|-2---2-----2----|-------2------2----|
|-0--------------|----------------|---2---------------|
|----------------|----------------|-0-----------------|
|----------------|----------------|-------------------|

       and I miss you now, I miss you now, yeah,___
                   B7sus2
|----------------|----------------|-------------------|
|---2---0h2---2--|----2-2-3-------|----2-2-3----------|
|-2---2-----2----|----2-2-2-------|----2-2-2----------|
|----------------|----------------|-------------------|
|----------------|-2--------------|-2-----------------|
|----------------|----------------|-------------------|

CHORUS (3:14)

OUTRO: (3:45)
  D5                        A5
|-12---12-------12--------|-12-12-12-12-12-12-12-12--|
|----10---10-10----10-10--|-10-10-10-10-10-10-10-10--|
|-------------------------|--------------------------|
|-------------------------|--------------------------|
|-------------------------|--------------------------|
|-------------------------|--------------------------|

  E5                F#5  G5
|-12-12-10-10-10-10-9--|-10-10-10-10-10-10--|
|-10-10-10-10-10-10-9--|-10-10-10-10-10-10--|
|----------------------|--------------------|
|----------------------|--------------------|
|----------------------|--------------------|
|----------------------|--------------------|

  D5                  A5
|-10-10-10-10-10-9--|---9--9--9--9-------10-|
|-10-10-10-10-10-10-|---10-10-10-10-/10-----|
|-------------------|-----------------------|
|-------------------|-----------------------|
|-------------------|-----------------------|
|-------------------|-----------------------|

  E5                       F#5  G5                    (fade out)
|-10----10----10---------------|------------------17---|
|----12----12----12---10---12--|----12-----14h15-------|
|------------------------------|-----------------------|
|------------------------------|-----------------------|
|------------------------------|-----------------------|
|------------------------------|-----------------------|
Comments