Fuel - Last Time Chords & Tabs

 

Last Time Chords & Tabs

Fuel Chords & Tabs

Version: 7 Type: Tab

Last Time Tab

   
Song: Last Time
Artist: Fuel
Album: Somthing Like Human
Tuning: Drop D (DADGBE)

Guitar 1(Rhythm): Brett Scallion
Guitar 2(Lead): Carl Bell

Notes: No one has yet to do this completely right, so I sat down and figured
it out myself. Here is the finshed work.

INTRO: Guitar 1 (struming on the last four notes of each measure is alternatly
picked.)
|----------------|----------------|----------------|---------------------|
|----------------|----------------|----------------|---------------------|
|-11-11-11111111-|-11-11-11111111-|-11-11-11111111-|---------------------|
|-9--9--9-9-9-9--|-0--0--0-0-0-0--|-9--9--9-9-9-9--|-12--12--12-12-12-12-|
|-9--9--9-9-9-9--|-0--0--0-0-0-0--|-9--9--9-9-9-9--|-12--12--12-12-12-12-|
|-9--9--9-9-9-9--|-0--0--0-0-0-0--|-9--9--9-9-9-9--|-12--12--12-12-12-12-|
|Guitar 2                                                                |
|----------------|----------------|----------------|---------------------|
|----------------|----------------|----------------|---------------------|
|----------------|----------------|----------------|---------------------|
|----------------|----------------|----------------|---------------------|
|----------------|----------------|----------------|---------------------|
|----------------|----------------|----------------|---------------------|


INTRO Part 2: Guitar 1
|----------------|----------------|----------------|---------------------|
|----------------|----------------|----------------|---------------------|
|-11-11-11111111-|-11-11-11111111-|-11-11-11111111-|---------------------|
|-9--9--9-9-9-9--|-0--0--0-0-0-0--|-9--9--9-9-9-9--|-12--12--12-12-12-12-|
|-9--9--9-9-9-9--|-0--0--0-0-0-0--|-9--9--9-9-9-9--|-12--12--12-12-12-12-|
|-9--9--9-9-9-9--|-0--0--0-0-0-0--|-9--9--9-9-9-9--|-12--12--12-12-12-12-|
|                                                                        |
|Guitar 2  Bend chord on last note in each measure.                      |
|----------------|----------------|----------------|---------------------|
|----------------|----------------|----------------|---------------------|
|-11-11-11111111b|-11-11-11111111b|-11-11-11111111b|-11-11-11111111b~----|
|-x--x--x-x-x-x--|-x--x--x-x-x-x--|-x--x--x-x-x-x--|-x--x--x-x-x-x-------|
|-9--9--9-9-9-9b-|-9--9--9-9-9-9b-|-9--9--9-9-9-9b-|-9--9--9-9-9-9b~-----|
|----------------|----------------|----------------|---------------------|


VERSE 1: Guitar 1 and 2
|----------------|-0--------------|----------------|---------------------|
|----------------|-3--------------|----------------|---------------------|
|-11-------------|-2--------------|-11-------------|-14------------------|
|-9--------------|-0--------------|-9--------------|-12------------------|
|-9--------------|-0--------------|-9--------------|-12------------------|
|-9--------------|-0--------------|-9--------------|-12------------------|

CONT.
|----------------|-0--------------|----------------|---------------------|
|----------------|-3--------------|----------------|---------------------|
|-11-------------|-2--------------|----------------|---------------------|
|-9--------------|-0--------------|-2--2--2-2-2-2--|-2--2--2-2-2-2--2/9--|
|-9--------------|-0--------------|-2--2--2-2-2-2--|-2--2--2-2-2-2--2/9--|
|-9--------------|-0--------12/2--|-2--2--2-2-2-2--|-2--2--2-2-2-2--2/9--|


PRE-CHORUS: Guitar 1 and 2 (It's pretty much the intro...minor difference.)
|----------------|----------------|----------------|---------------------|
|----------------|----------------|----------------|---------------------|
|-11-11-11111111-|-11-11-11111111-|-11-11-11111111-|---------------------|
|-9--9--9-9-9-9--|-0--0--0-0-0-0--|-9--9--9-9-9-9--|-12--12--12-12-12-12-|
|-9--9--9-9-9-9--|-0--0--0-0-0-0--|-9--9--9-9-9-9--|-12--12--12-12-12-12-|
|-9--9--9-9-9-9--|-0--0--0-0-0-0--|-9--9--9-9-9-9--|-12--12--12-12-12-12-|

PRE-CHORUS Cont. Guitar 1 and 2
|----------------|-0--0--0-0-0-0--|
|----------------|-3--3--3-3-3-3--|
|-11-11-11111111-|-2--2--2-2-2-2--|
|-9--9--9-9-9-9--|-0--0--0-0-0-0--|
|-9--9--9-9-9-9--|-0--0--0-0-0-0--|
|-9--9--9-9-9-9--|-0--0--0-0-0-0--|

CHORUS: Guitar 1: (Slight pause after last note in first measure. hold
last note in second measure out.)
|----------------|----------------|----------------|-------------------|
|----------------|----------------|----------------|-------------------|
|----------------|----------------|----------------|-------------------|
|-0-3-3-0-3-3----|-0-3-2~---------|-0-3-3-0-3-3----|-0-3-2~------------|
|-0-3-3-0-3-3----|-0-3-2~---------|-0-3-3-0-3-3----|-0-3-2~------------|
|-0-3-3-0-3-3----|-0-3-2~---------|-0-3-3-0-3-3----|-0-3-2~------------|
|Guitar2                                                                    
|----------------|---------------|-----------------|-------------------|
|---10-10--10-10-|--10---9h10h9--|---10-10--10-10--|--10---9h10h9------|
|-11-----11------|11--11---------|-11-----11-------|11--11-------------|
|----------------|---------------|-----------------|-------------------|
|----------------|---------------|-----------------|-------------------|
|----------------|---------------|-----------------|-------------------|
[ Tab from: http://www.guitartabs.cc/tabs/f/fuel/last_time_tab_ver_7.html ]
Chorus Cont: Guitar1
|----------------|---------------|
|----------------|---------------|
|----------------|---------------|
|-0-3-3-0-3-3----|-0-3-2~--------|
|-0-3-3-0-3-3----|-0-3-2~--------|
|-0-3-3-0-3-3----|-0-3-2~--------|
|                                |
|Guitar2                         |
|----------------|---------------|
|---10-10--10-10-|--10---9h10h9--|
|-11-----11------|11--11---------|
|----------------|---------------|
|----------------|---------------|
|----------------|---------------|

POST-CHORUS FILL: Guitar 1 and 2
|----------------|
|----------------|
|----------------|
|-------5------4-|
|---3/6--6/4-3-4-|
|-4------------4-|

Play INTRO PART 1 next. 

VERSE 2: Guitar 1
|----------------|-0-------------|----------------|---------------------|
|----------------|-3-------------|----------------|---------------------|
|-11-------------|-2-------------|-11-------------|-14------------------|
|-9--------------|-0-------------|-9--------------|-12------------------|
|-9--------------|-0-------------|-9--------------|-12------------------|
|-9--------------|-0-------------|-9--------------|-12------------------|
|                                                                       |
|Guitar2  (could be a harmonic here)                                    |
|----------------|---------------|----------------|---------------------|
|----------------|---------------|----------------|---------------------|
|-11---11b-11b---|-11---11b-11b--|-11---11b-11b---|-11---11b-11b--------|
|-x----x---x-----|-x----x---x----|-x----x---x-----|-x----x---x----------|
|-9----9b--9b----|-9----9b--9b---|-9----9b--9b----|-9----9b--9b---------|
|----------------|---------------|----------------|---------------------|


VERSE 2 CONT.: Guitar 1  
|----------------|-0-------------|----------------|--------------------|
|----------------|-3-------------|----------------|--------------------|
|-11-------------|-2-------------|----------------|--------------------|
|-9--------------|-0-------------|-2--2--2-2-2-2--|-2--2--2-2-2-2------|
|-9--------------|-0-------------|-2--2--2-2-2-2--|-2--2--2-2-2-2------|
|-9--------------|-0--------12/2-|-2--2--2-2-2-2--|-2--2--2-2-2-2------|
|                                                                      |
|Guitar 2                                                              |
|----------------|---------------|----------------|--------------------|
|----------------|---------------|----------------|--------------------|
|-11---11b-11b---|-11---11b-11b--|----------------|--------------------|
|-x----x---x-----|-x----x---x----|-2--2--2-2-2-2--|-2--2--2-2-2-2------|
|-9----9b--9b----|-9----9b--9b---|-2--2--2-2-2-2--|-2--2--2-2-2-2------|
|----------------|---------------|-2--2--2-2-2-2--|-2--2--2-2-2-2------|

PRE-CHORUS(see above)

CHORUS(see above)

POST-CHORUS FILL (see above)

INTERLUDE: Guitar 1 and 2 (Play this line 2x)
|----------------|----------------|----------------|-----------------|
|----------------|----------------|----------------|-----------------|
|----------------|----------------|----------------|-----------------|
|-x-x-x-x-x-x-x-x|-x-x-x-x-0-0-0-0|-x-x-x-x-x-x-x-x|-x-x-x-x-x-x-x-x-|
|-x-x-x-x-x-x-x-x|-x-x-x-x-0-0-0-0|-x-x-x-x-x-x-x-x|-x-x-x-x-x-x-x-x-|
|-x-x-x-x-x-x-x-x|-x-x-x-x-0-0-0-0|-x-x-x-x-x-x-x-x|-x-x-x-x-x-x-x-x-|

SOLO 1: Guitar 1
|----------------|----------------|----------------|----------------|
|----------------|----------------|----------------|----------------|
|-11-11-11111111-|-11-11-11111111-|-11-11-11111111-|-11-11-11111111-|
|-9--9--9-9-9-9--|-0--0--0-0-0-0--|-9--9--9-9-9-9--|-0--0--0-0-0-0--|
|-9--9--9-9-9-9--|-0--0--0-0-0-0--|-9--9--9-9-9-9--|-0--0--0-0-0-0--|
|-9--9--9-9-9-9--|-0--0--0-0-0-0--|-9--9--9-9-9-9--|-0--0--0-0-0-0--|
|                                                                   |
|Guitar 2                                                           |
|----------------|-7~---7~---7----|-9~---9----9----|-12---13^~------|
|-5^^^^~~~~------|---5~---5~------|---7~---7~------|----------------|
|-4^^^^~~~~------|----------------|----------------|----------------|
|----------------|----------------|----------------|----------------|
|----------------|----------------|----------------|----------------|
|----------------|----------------|----------------|----------------|

CHORUS: This time, instead of playing the chorus fill, play the chorus
riff one more time.

SOLO 2: Guitar 1
|---------------|----------------|--------------|---------------|
|---------------|----------------|--------------|---------------|
|---------------|----------------|--------------|---------------|
|-2~---------2~-|-2~---------2~--|-2~--------2~-|-2~---------2~-|
|-2~---------2~-|-2~---------2~--|-2~--------2~-|-2~---------2~-|
|-2~---------2~-|-2~---------2~--|-2~--------2~-|-2~---------2~-|
|
|Guitar 2
|-9~----9-~-----|-9-10-9----(9)--|-9~----9~-----|-9-10-9-12~----|
|----7~---------|--------7~------|----7~--------|---------------|
|---------------|----------------|--------------|---------------|
|---------------|----------------|--------------|---------------|
|---------------|----------------|--------------|---------------|
|---------------|----------------|--------------|---------------|

This solo is played several times until the song ends...

Legend: 
~ = Hold Out and let ring
(9)= Echoed note
b = bend
xxxx = miffle string
^ = Tremelo
h = hammer on
12/2 = slide from 12 to 2.