Fuel - Last Time Chords & Tabs

 

Last Time Chords & Tabs

Fuel Chords & Tabs

Version: 4 Type: Tab 0 ratings
1 star 2 stars 3 stars 4 stars 5 stars
comments

Last Time Tab

Tabbed By:  Xavier 7
Song by: Fuel
Song: Last Time


------------------------------------------------------------
------------------------------------------------------------
-------------11----11--11-11-11-11--------11---11-----------
------------------------------------------------------------
--------------9-----9---9--9--9--9---------9----9-----------
0-----------------------------------------------------------

Do the ---11-  part 7 times 
       ------
       ----9-  




------------------------------------------------------------
------------------------------------------------------------
-11----11---------11--11-----11------11--11-----11------11--
------------------------------------------------------------
--9-----9----------9---9------9-------9---9------9-------9--
--------------0------------x------0-------9---0-------0-----

------------------------------------------------------------
------------------------------------------------------------
--11------11---11---11------11-----11--11----11-------------
------------------------------------------------------------
---9-------9----9----9-------9------9---9-----9-------------
---0---0------0------9----0------0------0---0-----0---9-/---

------------------------------------------------------------
----2-------------------------------------------------------
------------------------------------------------------------
---------------4---------------3---------(3)----------------
------------------------------------------------------------
------------------------------------------------------------

------------------------------------------------------------
------------------------------------------------------------
------------------------------------------------------------
------------------------------------------------------------
--0-4-4-0-4-4-0------4-4-0-2---0-4-4-0-4-4-0----------------
--0-4-4-0-4-4-0-4--4-4-4-0-2---0-4-4-0-4-4-0-4--------------

------------------------------------------------------------
------------------------------------------------------------
------------------------------------------------------------
------------------------------------------------------------
----4-4-0-2-----0-4-4-0-4-4-0-----4-4-0-2-------------------
--4-4-4-0-2-----0-4-4-0-4-4-0-4-4-4-4-0-2-------------------

------------------------------------------------------------
--10-------9-10-9----10-10----10-10-----10-----9-10-9-------
-------11--------11--------11-------11-----11---------------
------------------------------------------------------------
------------------------------------------------------------
------------------------------------------------------------

------------------------------------------------------------
------------------------------------------------------------
------------------------------------------------------------
------------------------------------------------------------
------0-4---2-0-----0--/---1-/-2-/-5-/-7--------------------
--0-4------------4--0--/---1-/-2-/-5-/-8--------------------

------------------------------------------------------------
------------------------------------------------------------
---11------------------------11--11--11-11-11-11--11--11----
------------------------------------------------------------
------------------------------9---9---9--9--9--9---9---9----
------------------------------------------------------------

Again, play    ---11- 3 more times.   
               ------
               ----9- 

------------------------------------------------------------
------------------------------------------------------------
------------------------------------------------------------
--x-x-x-x-x-x-x-x-x-x-x-x----0----0-------------------------
--x-x-x-x-x-x-x-x-x-x-x-x----0----0-------------------------
--x-x-x-x-x-x-x-x-x-x-x-x----0----0-------------------------
[ Tab from: http://www.guitartabs.cc/tabs/f/fuel/last_time_tab_ver_4.html ]
------------------------------------------------------------
------------------------------------------------------------
------------------------------------------------------------
--x-x-x-x-x-x-x-x-x-x-x-x-x-x-x-x-x-x-x-x-x-x-x-x-----------
--x-x-x-x-x-x-x-x-x-x-x-x-x-x-x-x-x-x-x-x-x-x-x-x-----------
--x-x-x-x-x-x-x-x-x-x-x-x-x-x-x-x-x-x-x-x-x-x-x-x-----------

------------------------------------------------------------
------------------------------------------------------------
------------------------------------------------------------
--x-x-x-x---0--0-----x-x-x-x-x-x-x-x------------------------
--x-x-x-x---0--0-----x-x-x-x-x-x-x-x------------------------
--x-x-x-x---0--0-----x-x-x-x-x-x-x-x------------------------


-7--(7)-8-9-10-12-14----------------------------------------
-7--(7)-8-9-10-12-15----------------------------------------
-----------------------14-10-14---(14)-10-14----------------
-----------------------14-11-14---(14)-11-14----------------
------------------------------------------------------------
------------------------------------------------------------

---14-12-14-(14)-12-14-15-16-------19-----------------------
---15-14-15-(15)-14-15-16-17-------21-----------------------
------------------------------------------------------------
------------------------------------------------------------
------------------------------------------------------------
------------------------------------------------------------

------------------------------------------------------------
------------------9----9--9----/9---7--9---9-7/9------------
---11-------------------------------------------------------
------------------------------------------------------------
------------------------------------------------------------
------------------------------------------------------------

------------------------------------------------------------
-----9--10---9------------------7/9-----7--9----9--9--9-----
-----------------6-----6---6--------------------------------
------------------------------------------------------------
------------------------------------------------------------
------------------------------------------------------------

------------------------------------------------------------
-----9--10--9---9/12----12-12-----------9--7--9---9--7/9----
--------------------------------13/11-----------------------
------------------------------------------------------------
------------------------------------------------------------
------------------------------------------------------------

------------------------------------------------------------
--9--10--9-----------------7/9---7-9-----9-----9-----9------
-------------6------6---6-----------------------------------
------------------------------------------------------------
------------------------------------------------------------
------------------------------------------------------------

-----------------------------16--14-16-16-16-16-16-17-16----
-9--10/9--9/12---12-12-12-12--------------------------------
------------------------------------------------------------
------------------------------------------------------------
------------------------------------------------------------
------------------------------------------------------------

------------------
--14---14-14-14---
------------------
------------------
------------------
------------------

---16--14/16---16-16-16--16-17-16--16/19-19-14-16-14-16-----
------------------------------------------------------------
------------------------------------------------------------
------------------------------------------------------------
------------------------------------------------------------
------------------------------------------------------------

--16-16-16-16---
----------------
----------------
----------------
----------------
----------------

-16-17-16--------------16--------------------14-------------
-----------14----(14)---------------------------------------
------------------------------------------------------------
------------------------------------------------------------
------------------------------------------------------------
------------------------------------------------------------
Comments