Fuel - Last Time Chords & Tabs

 

Last Time Chords & Tabs

Fuel Chords & Tabs

Version: 3 Type: Tab 0 ratings
1 star 2 stars 3 stars 4 stars 5 stars
comments

Last Time Tab

   
#-----------------------------------------------------------------------------#
#-- File created with Instab - http://www.pconline.com/~smcarey/instab.html --#
#--      Original URL : http://www.crosswinds.net/~kaingrenn/tabs.html      --#  
#-----------------------------------------------------------------------------#

Author/Artist: Fuel
Title: Last Time
Album: Something Like Human
Transcribed by: Chris Nadeau
Email: KainGrenn@hotmail.com


d - strum down
u - strum up

b - bend
r - release
h - hammer on
\ - slide down
M - mute the strum with your FINGER, not your palm, OVER the indicated fret.   
	Just kind of rest your finger on the strings, don't press down, and  
	strum.  If you experiment, you'll get the right sound.



This is my first tab.  I think it sounds just like the song.
Listen to the song to figure out where they are as far as tuning.  If it helps,
it's the same as Hemorrhage, 'cept it's drop-D.


This is the verse riff.  At one or two points during the song, they only strum
each chord once and let it ring until the change.  Listen to the song to see  
when.     

 d      d     d u d u d    d    d    d    d u d u d    d
-2------2-----2-2-2-2-2----2----2----2----2-2-2-2-2----2----------------------
-2------2-----2-2-2-2-2----2----2----2----2-2-2-2-2----2----------------------
-2------2-----2-2-2-2-2----2----4----4----4-4-4-4-4----4----------------------
-4------4-----4-4-4-4-4----4----4----4----4-4-4-4-4----4----------------------
-5------5-----5-5-5-5-5----5----2----2----2-2-2-2-2----2----------------------
-0------0-----0-0-0-0-0----0----4----4----4-4-4-4-4----4----------------------
                                                                               
Play the above 3 times and then this...

 d    d    d u d u d    d    d    d    d u d u d    d
------------------------------------------------------------------------------
------------------------------------------------------------------------------
------------------------------------------------------------------------------
-2----2----2-2-2-2-2----2----2----2----2-2-2-2-2----2-------------------------
-2----2----2-2-2-2-2----2----2----2----2-2-2-2-2----2-------------------------
-2----2----2-2-2-2-2----2----2----2----2-2-2-2-2----2-------------------------



                                                                               
This is the chorus riff (rhythm guitar does the 0-4-4-0-4-4 part, lead does the  
part on the high string).  Play 3 times...
[ Tab from: http://www.guitartabs.cc/tabs/f/fuel/last_time_tab_ver_3.html ]
 d    d    d    d    d    d    d    d    d    d    d    d    d        d
                                    M    M
-2----5----5----2----5----5----2--------------5----5----2----4h5------4h5-----
------------------------------------------------------------------------------
------------------------------------------------------------------------------
-0----4----4----0----4----4----0----4----4----4----4----0----2--------2-------
-0----4----4----0----4----4----0----4----4----4----4----0----2--------2-------
-0----4----4----0----4----4----0----4----4----4----4----0----2--------2-------
This            is             the       last                time...

                                                                               
Finish out the chorus with this riff.  Listen to the song to get the timing on  
the bend-release-slide.
        
                                     d
------------------------------------------------------------------------------
------------------------------------------------------------------------------
------------------------------------------------------------------------------
-------------------------------------0----------------------------------------
-----------0----4b5r4\2----0---------0----------------------------------------
-0----4-------------------------4----0----------------------------------------
 Now....                                                                              



After the second chorus, there's a part where he's singing something like "blah
blah blah you know I know you know..." and the strums are muted.  These are the  
open bottom 3 bass strings palm muted.  To get a better sound, try to get the  
right side of your hand as close to the bridge as possible.


At the last chorus, when he says "Now", the riff switches to this without going
to the riff above and he sings the chorus again to this (yeah, confusing right?
listen to the song and you'll hear it at the end).  Again, rhythm guitar does
the low part, and the lead guitar does the part on the top string.   

 d                                     d              d  
-2----5----5----2----5----5----2------------5----5----2----4h5-----4h5--------
------------------------------------------------------------------------------
------------------------------------------------------------------------------
-0-------------------------------------4--------------2-----------------------
-0-------------------------------------4--------------2-----------------------
-0-------------------------------------4--------------2-----------------------


Here's what the solo SOUNDS like, as far as I can tell.  I think they have some
kind of special effect or two on their lead guitar here...  To bend the string
up that far on the 7b9 and 12b14, slide the strings in the way up your fingernail
and go UNDER them.
Do the 7b9 and 12b14 SLOWLY.  Listen to the song for the timing.

-7b9-----4b5---2----4b5----2----4b5-----9b10----9----9b10----9---9b10------12b14-
---------------------------------------------------------------------------------
---------------------------------------------------------------------------------
---------------------------------------------------------------------------------
---------------------------------------------------------------------------------
---------------------------------------------------------------------------------
                                                                               


Comments