Fuel - Innocent Chords & Tabs

 

Innocent Chords & Tabs

Fuel Chords & Tabs

Version: 6 Type: Tab 0 ratings
1 star 2 stars 3 stars 4 stars 5 stars
comments

Innocent Tab

Intro/Verse
e--7-7-7-7-7/10-------------|
B--8-8-8-8-8/11--7-7-5---5--|
G--9-9-9-9-9/12--7-7-5---5--|
D--9-9-9-9-9/12--7-7-5---5--|
A--7-7-7-7-7/10--5-5-3---3--|
E---------------------------|

Bridge (All our lives get complicated....)
e--0-0-0-0-0--2--3--3--|
B--1-1-1-1-1--3--3--3--|
G--0-0-0-0-0--2--0--0--|   [Play Twice]
D--2-2-2-2-2--0--0--0--|
A--3-3-3-3-3-----2--2--|
E--0-0-0-0-0-----3--3--|

e--0-0-0-0-0--3--------|
B--1-1-1-1-1--3--2--2--|
G--0-0-0-0-0--0--2--2--|
D--2-2-2-2-2--0--2--2--|
A--3-3-3-3-3--X--0--0--|
E-------------3--------|

e--0-0-0-0-0--2-2-2-2-2--|
B--1-1-1-1-1--3-3-3-3-3--|
G--0-0-0-0-0--2-2-2-2-2--|
D--2-2-2-2-2--0-0-0-0-0--|
A--3-3-3-3-3-------------|
E------------------------|

Distortion starts w/Verse (Angels lend me your might...)

Bridge (All those colors long since faded...)
    same as before but end with
e-----
B-----
G-----   (Play about 15 times)
D--2--
A--2--
E--0--

Solo:
[ Tab from: http://www.guitartabs.cc/tabs/f/fuel/innocent_tab_ver_6.html ]
e----------------------------------------------------------17-------|
b----8--------8\7-----7\-/7-----8-------8\7---------15--------------|
g---------7--------------------------7------------------------------|
d-------------------------------------------------------------------|
a-------------------------------------------------------------------|
E-------------------------------------------------------------------|

e---17b-17-16v-------14/16-----17v-------17b--17--14v---------------|
b-------------------------------------------------------------------|
g-------------------------------------------------------------------|
d-------------------------------------------------------------------|
a-------------------------------------------------------------------|
E-------------------------------------------------------------------|

Back to Verse
Then the Bridge
Then Verse w/o Distortion
Strum the first note of the song slow for the last chord
Comments