Fuel - Innocent Chords & Tabs

 

Innocent Chords & Tabs

Fuel Chords & Tabs

Version: 4 Type: Tab 0 ratings
1 star 2 stars 3 stars 4 stars 5 stars
comments

Innocent Tab

Fuel, Innocent.
Tabbed by Brian, TheAtaris77@aol.com.
  
-------------------------------------------------------------------------------
                           Innocent - Fuel
-------------------------------------------------------------------------------

By:Brian (TheAtaris77@aol.com)
[ Tab from: http://www.guitartabs.cc/tabs/f/fuel/innocent_tab_ver_4.html ]
  Intro: 
     I'm just correcting the intro to this tab. The rest of it looked fine. Any
questions or comments, please e-mail me at TheAtaris77@aol.com
        
e|-----0-0-0-0-0--------------------0-0-0-0-0-0------------------------------|
B|-----8-8-8-8-8-8--7-7--5----------8-8-8-8-8-8--7-7--5----------------------|
G|-----0-0-0-0-0-0--0-0--0----------0-0-0-0-0-0--0-0--0----------------------|
D|-----9-9-9-9-9-9--7-7--5----------9-9-9-9-9-9--7-7--5----------------------|
A|---7-7-7-7-7-7-7--5-5--3--------7-7-7-7-7-7-7--5-5--3----------------------|
E|-0----------------------------0--------------------------------------------|
 
:: Ultimate Guitar Archive :: 
http://www.ultimate-guitar.com 

Comments