Fuel - Innocent Chords & Tabs

 

Innocent Chords & Tabs

Fuel Chords & Tabs

Version: 3 Type: Tab 0 ratings
1 star 2 stars 3 stars 4 stars 5 stars
comments

Innocent Tab

   
Fuel, inncocent.
Tabbed by leonard Costa leite ,Leonard729@hotmail.com.
  
#----------------------------------PLEASE NOTE--------------------------------#
#This file is the author's own work and represents their interpretation of the#
#song. You may only use this file for private study, scholarship, or research.#
#-----------------------------------------------------------------------------#
#-- File created with Instab - http://www.pconline.com/~smcarey/instab.html --#
#-----------------------------------------------------------------------------#

Author/Artist: Fuel
Title: Innocent
Album: Something Like human
Transcribed by: Leonard Costa Leite
Email: Leonard729@hotmail.com

This is my second song i have tabbed for something like human 
the first was bad day i would like it if someone could send me the tab 
for hemmorrage.

#This tab may not be used with out the transcribers permission#
[ Tab from: http://www.guitartabs.cc/tabs/f/fuel/innocent_tab_ver_3.html ]
Verse 
-7-7-7--7--7---7---5-5-3--|
-8-8-10-10-10--8---7-7-5--|
-9-9-7--7--7---9---7-7-5--|
-9-9-9--9--9---9---7-7-5--|
-7-7-7--7--7---7---5-5-3--|
--------------------------|
   Emin        D    C                                                         
Satan you know where I lie........

Chorus 
------------------------------------------------0--0--0--|
--------5--------------7-------------5-------5--2--2--5--|
------5---5----------7---7---------5---5-----5--2--2--5--|
----5--------5-----7-------7-----5-------5---5--2--2--5--|
--3------------3/5-----------5\3-----------3-3--0--0--3--|
------------------------------------------------0--0--0--|
   C                D                  C        A     C                       

All our lives get complicated search for pleasure overrated...........

Tabbed By Leonard Costa leite 

:: Ultimate Guitar Archive :: 
http://www.ultimate-guitar.com 

 
Comments