Fuel - Innocent Chords & Tabs

 

Innocent Chords & Tabs

Fuel Chords & Tabs

Version: 2 Type: Tab 1 rating
1 star 2 stars 3 stars 4 stars 5 stars
comments

Innocent Tab

   
Fuel - Innocent
Something Like Human
2000

by Joseph Aguirre
mexicano3@hotmail.com


* Intro/Verse *

e---0---0--0-0-0---0/0----/0--0-0x---0---0-0-0-
b---8---8--8-8-8---8/9----/7--7-7x---5---5-5-5-
g---0---0--0-0-0---0/0----/0--0-0x---0---0-0-0-
d---9---9--9-9-9---9/10---/7--7-7x---5---5-5-5-
a---7---7--7-7-7---7/8----/5--5-5x---3---3-3-3-
E------------------------------------------------


Pick up the strumming from the album, and if it sounds like it 
needs more strums than I listed by all means do it.  Just make sure 
you slide between the chords.  This riff is pretty much the same as the 
main riff from Shimmer.  So if you can play Shimmer you can play 
this.  It's only backwards

* Chorus *
   Cadd9              D     G

e--3------------------2-----3------
b--3------------------3-----3------
g--0------------------2-----0------
d--2------------------0-----0------
a--3------------------------2------
E---------------------------3------
 "All our lives get, comp-plicated..."

   Cadd9           A                   Cadd9        D
[ Tab from: http://www.guitartabs.cc/tabs/f/fuel/innocent_tab_ver_2.html ]
e--3---------------0-------------------3------------2-----------------------
b--3---------------2-------------------3------------3-----------------------
g--0---------------2-------------------0------------2-----PAUSE-------------
d--2---------------2-------------------2------------0-----------------------
a--3---------------0-------------------3------------------------------------
E--------------------------------------------------------------------------
 "Never armed our souls, for what the future would hold, we were innocent"

After he says "innocent" go back into the intro/verse.
In the second verse the guitar gets distorted.
During the second chorus the same riff is played and the other guitar plays 
something over the strumming.  I don't know that part yet.

* Solo *

I don't know it, if you do, send it to me.  The only thing I've come up
with for the rhythm guitar is this.  I just play it whenever I'm doing 
an acoustic version.  It may not be right but it sounds good.

           Cadd9      D       Dsus

e----------3--3-3-3---2--2-2--2h3-3-3---|-
b----------3--3-3-3---3--3-3--3---3-3---|-
g----------0--0-0-0---2--2-2--2---2-2---|-
d----------2--2-2-2---0--0-0--0---0-0---|-
a--------2-3--3-3-3---------------------|-
E--0-2-3--------------------------------|-

Once again pick up the strumming from the cd, because i didn't write
out each strum of the chord, and you should be able to 
get the change from Cadd9 to the D from the cd as well.

Comments, Suggestions, or to just tell me I'm wrong:
Joseph Aguirre
mexicano3@hotmail.com
Comments