Fuel - Hemorrhage In My Hands Chords & Tabs

 

Hemorrhage In My Hands Chords & Tabs

Fuel Chords & Tabs

Version: 5 Type: Tab 0 ratings
1 star 2 stars 3 stars 4 stars 5 stars
comments

Hemorrhage In My Hands Tab

   
Song: Hemorrhage (In My Hands)
Artist: Fuel
Tabbed By: Patrick Lawrence Caasi
E-mail: www.pennywise_018@yahoo.com
Note: All verse is played in B minor fret. Just adjust your pointing finger to change
chords from G and A. Enjoy!


Intro:
    Bm  A    G
e|--000-0000-3----------------------------------|
B|--333-2222-3----------------------------------|
G|--444-2222-4----------------------------------|
D|--444-2222-5----------------------------------|
A|--222-0000-5----------------------------------|
E|--xxx-xxxx-3----------------------------------|


Verse:
    Bm        A          G         A
e|----------------------------------------------|
B|-------3---------3---------3---------3--------|
G|----4---4-----4---4-----4---4-----4---4-------|
D|---4-4---4---4-4---4---4-4---4---4-4---4------|
A|--2---------0-------------------0-------------|
E|----------------------3-----------------------|
[ Tab from: http://www.guitartabs.cc/tabs/f/fuel/hemorrhage_in_my_hands_tab_ver_5.html ]
Refrain:
        Em   D      A    Asus
e|------000--2222--0000-000---------------------|
B|------000--3333--2223-333---------------------|
G|------000--2222--2222-222---------------------|
D|------222--0000--2222-222---------------------|
A|------222--0000--0000-000---------------------|
E|--3-2-xxx--xxxx--xxxx-xxx---------------------|

Chorus:
    G    D    A   Asus G   D    F#
e|--333--222--000-00---333-222-2222-------------|
B|--333--333--222-33---333-333-2222-------------|
G|--000--222--222-22---000-222-3333-------------|
D|--000--000--222-22---000-000-4444-------------|
A|--222--000--000-00---222-000-4444-------------|
E|--333--xxx--xxx-xx---333-xxx-2222-------------|


Verse 2: 
e|----------------------------------------------|
B|-------3---------3---------3---------3--------|
G|----4---4-----4---4-----4---4-----4---4-------|
D|---4-4---4---4-4---4---4-4---4---4-4---4------|
A|--2---------0-------------------0-------------|
E|----------------------3-----------------------|
Comments