Fuel - Hemorrage Chords & Tabs

 

Hemorrage Chords & Tabs

Fuel Chords & Tabs

Version: 1 Type: Tab 2 ratings
1 star 2 stars 3 stars 4 stars 5 stars
comments

Hemorrage Tab

Title: Hemorrhage (In my hands)
Artist: Fuel
Album: Something Like Human
Transcribed by: Brad Connor (Xtremesports4ne1@hotmail.com)

This is a tight song. The tab is absolutely 100% correct, including 
the solo. The timing is a little hard to get in some places. It really 
helps if you listen to the CD to get the timing. If you have any 
questions or comments email me at Xtremesports4ne1@hotmail.com

Standard Tuning

e--------------9------
B-----12---------12---
G--11----11--------11-
D---------------------
A---------------------
E---------------------

e--0--0---0--0--0--  *Let last note ring
B--3--3---2--2--2--
G--4--4---2--2--2--
D--4--4---2--2--2--
A--2--2---0--0--0--
E------------------

Intro (picking part)

e---------0-----------------------0----------------0-------------0----
B-------3---3------------------3----3------------3---3---------3--3---
G-----0-------0-------------0---------0--------0-------0-----0------0--
D---4--------------------4--------------4----4-------------4----------4
A-2----------------0-------------------------------------0-------------
E-----------------------------------------3----------------------------
Memories are just where you lay them.........
Drag the waters till the depths give up their dead
What did you expect to find? Was there something you left behind?
Don't you remember anything I said when I said

Pre Chorus

e-0---0-----0---0---0-----0--0--0--0-0---0-0-0
B-0---0-----3---3---3-----2--2--3--3-3---3-3-3
G-0---0-----2---2---2-----2--2--2--2-2---2-2-2
D-2---2-----0---0---0-----2--2--2--2-2---2-2-2
A-2---2-------------------0--0--0--0-0---0-0-0
E-0---0---------------------------------------
Don't fall away, and leave me to myself
Don't fall away and leave love bleedin in

Chorus (w/th distortion)

e-3-----3---2-----------------------
B-3-----3---3-----2----2---2---2---2
G-0-----0---2-----2----2---2---2---2
D-0-----0---0-----2----2---2---2---2
A-X-----X---------0----0---X---X---X
E-3-----3------------------2---2---2
my hands, in my hands again. Leave love bleedin in
my hands, in my hands

e---------0-------
B---------0-------
G--3--3---3---3--3
D--4--4---4---4--4
A--4--4---4---4--4
E--2--2---2---2--2
Love lies bleedin.

Riff thing

e--------------------------------------------
B--------------------------------------------
G--------------------------------------------
D--------------------------------------------
A-2-----0-----------0-----2-----0-----------0
E-------------3-----------------------3------


e------------------------
B------------------------
G-7-----------------6-7-6
D----------------9-------
A---------9--------------
E------------------------
Ah hold me now I feel contagious
Am I the only place that you'veleft to go?
She cries her life is like, some movie black and white
[ Tab from: http://www.guitartabs.cc/tabs/f/fuel/hemorrage_tab.html ]
e---------------------------------------
B---------------------------------------
G---------------------------------------
D---------------------------------------
A-2--------0----------------0-----------
E-------------------3----------------3-2
Dead actors fakin lines. Over and over and over again she cries

Pre Chorus
Chorus


e-----------------------------------------------
B-----------------------------------------------
G-----------------------------------------------
D-----------------------------------------------
A------------2-2-2-2------2-2-2-2-4----5-5-5-5-4
E-3-3-3-3-5-----------5-------------------------
And I wanted, and you turned away

e----------------------------------------
B----------------------------------------
G----------------------------------------
D----------------------------------------
A--5-5-5-5-7----9-9-9--------4--4--4----4
E---------------------0------2--2--2----2
You don't remember, but I do. You never even

Solo

e---14---------------14--------14--14---14--------------------------14
B------------12-----------12-----------12--12---15---14---11---12-----
G---------------------------------------------------------------------
D---------------------------------------------------------------------
A---------------------------------------------------------------------
E---------------------------------------------------------------------
Tried.........

Solo (continued)
e--------14----14------------------12-------12-12-12-12----14-------14
B---12------12------12/0-12-10-10--------10-------------15----15-14---
G---------------------------------------------------------------------
D---------------------------------------------------------------------
A---------------------------------------------------------------------
E---------------------------------------------------------------------

Solo (continued)
e-----------14-------14--------------------12-----12--12--14---15--14
B--14--12------12-14------14-----12----------------------------------
G-------------------------------------11------11---------------------
D--------------------------------------------------------------------
A--------------------------------------------------------------------
E--------------------------------------------------------------------

Pre Chorus
Chorus


Outro
e--------------------------------------------------------------------
B--------------------------------------------------------------------
G-6--7--7--6----7--6--------6----6--------6--7--7--6---7---6-----6---
D---------------------7--7-----7----7-------------------------7-----7
A--------------------------------------------------------------------
E--------------------------------------------------------------------

Outro (continued)
e-----------------------------------------3---3---2--2----
B-----------------------------------------3---3---3--3----
G---8--------7------5----8------7----5----0---0---2--2---2
D---10^------9^-----7----10^----9^---7^---0---0---0--0---2
A-----------------------------------------X---X----------0
E-----------------------------------------3---3-----------

Comments