Fuel - Falls On Me Chords & Tabs

 

Falls On Me Chords & Tabs

Fuel Chords & Tabs

Version: 1 Type: Tab 0 ratings
1 star 2 stars 3 stars 4 stars 5 stars
comments

Falls On Me Tab

   
   Artist:  Fuel
     Song:  Falls On Me
Tabbed By:  Jay Morales
    
  
   I tabbed this out on my acoustic,so its not at all 100% 
   but you can play along to the cd with this and it will sound just fine.

                                                              ^ ^
E------0--------0--------0-------0--------0--------0--5-22-333332-
B---3-3-3----3-3-3----3-3-3---3-3-3----3-3-3----3-3-3-3-33-333333-
G----2---2----2---2----2---2---2---2----2---2----2---22-22-222222-
D--3-----------------3----------------3---------------------------
A-----------0----------------0-----------------0------------------
E-----------------------------------------------------------------
                                                              ^ ^
E------0--------0--------0-------0--------0--------0--5-22-333332-
B---3-3-3----3-3-3----3-3-3---3-3-3----3-3-3----3-3-3-3-33-333333-
G----2---2----2---2----2---2---2---2----2---2----2---22-22-222222-
D--3-----------------3----------------3---------------------------
A-----------0----------------0-----------------0------------------
E-----------------------------------------------------------------
                                                              ^ ^
E------0--------0--------0-------0--------0--------0--5-22-333332---------
B---3-3-3----3-3-3----3-3-3---3-3-3----3-3-3----3-3-3-3-33-333333--33(3b)~   
G----2---2----2---2----2---2---2---2----2---2----2---22-22-222222--22(2b)~   
D--3-----------------3----------------3-----------------------------------
A-----------0----------------0-----------------0--------------------------
E-------------------------------------------------------------------------
[ Tab from: http://www.guitartabs.cc/tabs/f/fuel/falls_on_me_tab.html ]
E------------------------------------------------------------
B--------------------1~~11-------------------1~~11-----------
G--5~~55-------------0~~00-5~~55-------------0~~00-5~~5555555
D--5~~55-5~~55-7~~77-3~~33-5~~55-5~~55-7~~77-3~~33-5~~5555555
A--3~~33-5~~55-7~~77-3~~33-3~~33-5~~55-7~~77-3~~33-3~~3333333
E--------3~~33-5~~55-------------3~~33-5~~55-----------------
                                          ^ ^
E---------------------------------5-22-333332 
B------1-------1-------1-------1--3-33-333333
G----0--0-0-0-0-0----0--0-0-0-0-0-2-22-222222
D---2-2--2---2---2--2-2--2---2---2-----------
A--3-------3-------3-------3-----------------
E--------------------------------------------
                                          ^ ^
E---------------------------------5-22-333332---
B------1-------1-------1-------1--3-33-333333-33
G----0--0-0-0-0-0----0--0-0-0-0-0-2-22-222222-22
D---2-2--2---2---2--2-2--2---2---2--------------
A--3-------3-------3-------3--------------------
E-----------------------------------------------
       
E--------------------------------------------------
B--------------------1~~11-------------------1~~11-
G--5~~55-------------0~~00-5~~55-------------0~~00-
D--5~~55-5~~55-7~~77-3~~33-5~~55-5~~55-7~~77-3~~33-
A--3~~33-5~~55-7~~77-3~~33-3~~33-5~~55-7~~77-3~~33-
E--------3~~33-5~~55-------------3~~33-5~~55-------

E-------------------------------------------   
B-------------------------------------------  
G-----------------0~~0-----------0~~0-9~~~9/  
D--5~~5/7~~7/5~~5/3~~3/5~~5/7~~7/3~~3/9~~~9/ 
A--5~~5/7~~7/5~~5/3~~3/5~~5/7~~7/3~~3/7~~~7/   
E--3~~3/5~~5/3~~3------3~~3/5~~5------------  

E--------------------------------------------------
B--------------------1~~11-------------------1~~11-
G--5~~55-------------0~~00-5~~55-------------0~~00-
D--5~~55-5~~55-7~~77-3~~33-5~~55-5~~55-7~~77-3~~33-
A--3~~33-5~~55-7~~77-3~~33-3~~33-5~~55-7~~77-3~~33-
E--------3~~33-5~~55-------------3~~33-5~~55-------

E--------------------------------------------------
B--------------------1~~11-------------------1~~11-
G--5~~55-------------0~~00-5~~55-------------0~~00-
D--5~~55-5~~55-7~~77-3~~33-5~~55-5~~55-7~~77-3~~33-
A--3~~33-5~~55-7~~77-3~~33-3~~33-5~~55-7~~77-3~~33-
E--------3~~33-5~~55-------------3~~33-5~~55-------

E------0--------0--------0-------0--------0--------0--52
B---3-3-3----3-3-3----3-3-3---3-3-3----3-3-3----3-3-3-23
G----2---2----2---2----2---2---2---2----2---2----2------
D--3-----------------3----------------3-----------------
A-----------0----------------0-----------------0--------
E-------------------------------------------------------

I dont Know where everyone has been getting the lyrics from
but from what i'v seen they are usually wrong.
these lyrics are 100%. trust me.

You see me hanging round, 
starting to swear about 
this black hole you've dug for me.     
and silently within, of hands touchin skin 
sharp breaks my disease - and i can breath. 

and all of your ways 
all you dream - falls on me 
it falls on me. 
and your beautiful sky 
the light you bring 
falls on me it falls on me. ahaa

ya faith like a pain,
draws me in again
she washes all my wounds for me.
darkness in my veins - I never could explain 
and i wonder if you've ever seen,
will you still believe. 

and all of your ways 
all you dream - falls on me 
it falls on me. 
and your beautiful sky
the light you bring 
falls on me it falls on me. 

am I that strong, to carry on, have i changed your life 
have i changed my world could you save me. ahhhhha 

and all of your ways
all you dream - falls on me 
it falls on me. 
and your beautiful sky
the light you bring
falls on me it falls on me. 

and all of your weight
all you dream - falls on me
it falls on me.
and your beautiful sky
and the light you bring
falls on me it falls on me. 
hahhhhaha yea ahhhah  



      
Comments