Fuel - Falls On Me Chords & Tabs

 

Falls On Me Chords & Tabs

Fuel Chords & Tabs

Version: 2 Type: Chords 0 ratings
1 star 2 stars 3 stars 4 stars 5 stars
comments

Falls On Me Chords

   
Artist: Fuel
Song: Falls On Me
Album: Natural Selection
Tabbed by: Mathias

Normal Tuning (E,A,D,G,B,E)

Chords:

     E B G D A E
C    0 1 0 2 3 0
G    3 3 0 0 2 3
Am   0 1 2 2 0 0
F    1 1 2 3 0 x
E    0 0 1 2 2 0

Intro/Verse:
[---------0-----------------0--------
[-----1-----1---1-------1-----1---1--
[---0---0-----0-------0---0-----0----
[-3-----------------2----------------
[------------------------------------
[------------------------------------

End Of Intro (Don't play at end of each verse):
[--2-2--3-3-3--2---------------------
[--3-3--3-3-3--3---------------------
[--2-2--2-2-2--2--------------------- (Play Only Once)
[------------------------------------
[------------------------------------
[------------------------------------

Chorus:
[ Tab from: http://www.guitartabs.cc/tabs/f/fuel/falls_on_me_crd_ver_2.html ]
C               G
And all of your ways
        Am
All you dream
         F
Falls on me, it falls on me
C                  G
And your beautiful sky
              Am
The light you bring
         F
Falls on me, it falls on me

Bridge:
G         Am
Am I that strong
G        Am
To carry on
G                   Am
Have I changed your life
G                   F
Have I changed your world
               E
Could you save me

Solo:
[------------------------------------------------------
[------------------------------------------------------
[--(9)-(9)-9v-10p9---------9v-10p9-------9v-10p9-------
[------------------12v-10v---------12-10---------12bl--
[------------------------------------------------------
[------------------------------------------------------

-------------------
Key for the solo:
p - pull off
v - vibrato
b - bend
-------------------

Here's how it goes
intro/verse: 5x
chorus: 1x
intro/verse: 2x
chorus: 1x
bridge: 1x
chorus: 1x
solo: 1x
intro/verse: 1x (Play the whole intro: even second half)

If any comments, contact me at INUTERO9089@aol.com,
Comments