Fuel - Falls On Me Chords & Tabs

 

Falls On Me Chords & Tabs

Fuel Chords & Tabs

Version: 1 Type: Chords 0 ratings
1 star 2 stars 3 stars 4 stars 5 stars
comments

Falls On Me Chords

   
#----------------------------------PLEASE NOTE---------------------------------#
#This file is the author's own work and represents their interpretation of the #
#song. You may only use this file for private study, scholarship, or research. #
#------------------------------------------------------------------------------#

Title: Falls On Me
By: Fuel
Submitted By: Jason Sauve

-----------------------------------------
Legend:

p - pull off
v - vibrato
b - bend

Chords:

     e B G D A e
C    0 1 0 2 3 0   
G    3 3 0 0 2 3
Am   0 1 2 2 0 0
F    1 1 2 3 0 x
E    0 0 1 2 2 0 
-----------------------------------------

Intro/Verse:
  
e---------0-----------------0--------
B-----1-----1---1-------1-----1---1--
G---0---0-----0-------0---0-----0----   (Play 3x)
D-3-----------------2----------------
A------------------------------------
E------------------------------------


End Of Intro:  
(Don't Play At the end of each verse) 

e--2-2--3-3-3--2---------------------
B--3-3--3-3-3--3---------------------
G--2-2--2-2-2--2---------------------   (Play Only Once)
D------------------------------------
A------------------------------------
E------------------------------------


Chorus: 

C               G                
And all of your ways
        Am 
All you dream
         F
Falls on me, it falls on me
C                  G
And your beautiful sky
              Am
The light you bring
         F
Falls on me, it falls on me


Bridge:
[ Tab from: http://www.guitartabs.cc/tabs/f/fuel/falls_on_me_crd.html ]
G         Am
Am I that strong
G        Am
To carry on
G                   Am
Have I changed your life
G                   F
Have I changed your world
               e
Could you save me


Solo:

e------------------------------------------------------
B------------------------------------------------------
G--(9)-(9)-9v-10p9---------9v-10p9-------9v-10p9-------
D------------------12v-10v---------12-10---------12b1--
A------------------------------------------------------
E------------------------------------------------------


The Basic Way It Goes:

Intro/Verse: 5x
Chorus: 1x
Intro/Verse: 2x
Chorus: 1x
Bridge: 1x
Chorus: 2x
Solo: 1x
Intro/Verse: 1x (At the end play the whole intro, even the second half)


Enjoy, Any problems e-mail me at goose09@hotmail.com


Lyrics:

You see me hanging round 
Starting to swear about this black hole of a dark field 
And silently within hands touchin skin sharp 
Breaks my disease and I can breath 

And all of your ways 
All you dream falls on me 
It falls on me 
And your beautiful sky 
The light you breath 
Falls on me 
It falls on me

I feel like a pain 
It draws me in again
Sqaushes all my worst of me 
Darkness in my veins 
I never could explain 
And I wonder if you have ever seen 
And still believe 

And all of your ways 
And all that you dream
Falls on me 
It falls on me 
And your beautiful sky
The light you breath 
Falls on me 
It falls on me 

Am I that strong 
To carry on 
Have I changed your life 
Have I changed my world
Could you save me, ahh 

And all of your ways 
All you dream 
Falls on me 
It falls on me 
And you beautiful sky
The light you breath
Falls on me 
It falls on me 

And all of your ways
All you dream falls on me
It falls on me
And your beautiful sky
The light you breath
Falls on me 
It falls on me 
Comments