Fuel - Falls On Me Chords & Tabs

 

Falls On Me Chords & Tabs

Fuel Chords & Tabs

Version: 1 Type: Bass Tab 0 ratings
1 star 2 stars 3 stars 4 stars 5 stars
comments

Falls On Me Bass Tab

   
Band- Fuel
Song- Falls On Me


Intro - No Bass

Chorus: C G A   F

        G --------    -----|
        D -3------    -----|
        A -------- 3x --5--|
        E ----6---    -----|

Verse: No Bass
[ Tab from: http://www.guitartabs.cc/tabs/f/fuel/falls_on_me_btab.html ]
Bridge: G A G A  :  G A F  :  E E

Outro:             3x
        G ------------------    -----|
        D ------------------    -----|
        A -8---------------- 3x --5--|
        E ---X-12-10-0-12-X-    -----|

                   3x
        G -----    --------|
        D -3-2-    --------|
        A ----- 3x --5~~~--|
        E -----    --------|

-
-
-
-
-
-
-
--
ENJOY!
Comments