Fuel - Down Inside Of You Chords & Tabs

 

Down Inside Of You Chords & Tabs

Fuel Chords & Tabs

Version: 2 Type: Tab 0 ratings
1 star 2 stars 3 stars 4 stars 5 stars
comments

Down Inside Of You Tab

   
Artist: Fuel
Song: Down Inside Of You
Album: Natural Selection

Dropped-D Tuning
CHORDS:
G5: 555XXX		F5: 333XXX
Eb5: 111XXX		D5: 000XXX

INTRO: (0:11)
 (G5)
|-------------------------------------------------------|
|-------------------------------------------------------|
|-------------------------------------------------------|
|-------------------------------------------------------|
|---------------------8-------------------------------3-|
|-5-h7h8-5-5---5-h7h8---8-7---5-h7h8-5-5---5-h7h8-5-5-3-|  2x

VERSE 1: (0:23)
  Never thought I'd be this way
  G5                             (G5)
|-----------------------------------------------|
|-----------------------------------------------|
|-----------------------------------------------|
|-5-----------------\---------------------------|
|-5-----------------\---------------------------|
|-5-----------------\-------------7b-5-5-7b-5-5-| 

  G5                   (G5)
I hung every word you say
G5                        (G5)
Scars that you gave to me
G5                       (G5)
I earned all too eagerly

CHORUS: (0:46)
       Eb5    F5           G5
Cause, down inside of you (down inside of you)
Eb5    F5           G5
Deep inside of you (deep inside)
Eb5    F5           G5
Down inside of you (down inside of you)
          Eb5    F5
Is all of heaven and hell
[ Tab from: http://www.guitartabs.cc/tabs/f/fuel/down_inside_of_you_tab_ver_2.html ]
  yeah,_______
  (G5)
|-------------------------------------------------------|
|-------------------------------------------------------|
|-------------------------------------------------------|
|-------------------------------------------------------|
|---------------------8-------------------------------3-|
|-5-h7h8-5-5---5-h7h8---8-7---5-h7h8-5-5---5-h7h8-5-5-3-|  2x

VERSE 2: (1:20)
G5                       (G5)
Everyday is all the same
G5                            (G5)
Take the pleasure with the pain
G5                          (G5)
Things that you put me through
G5                    (G5)
Never is enough for you

(CHORUS) (1:42)

BRIDGE: (2:05)
Eb5     F5         Eb5               F5      
So I'll fly, (far away) find another life (far away)
Eb5         F5               Eb5                   D5
I somewhere it's right, (far away), so why can't I forget you

BREAK: (2:31) N.C. 

INTERLUDE: (2:54)
Eb5    F5    G5                  Eb5    F5   G5
Hey,_______ (down inside of you) ah,_______ (deep inside)
Eb5    F5         G5                   Eb5    F5        G5
Down inside you, (down inside of you), down inside you (deep inside)

(CHORUS) (3:17)

OUTRO: (3:40)
  (G5)
|-------------------------------------------------------|
|-------------------------------------------------------|
|-------------------------------------------------------|
|-------------------------------------------------------|
|---------------------8-------------------------------3-|
|-5-h7h8-5-5---5-h7h8---8-7---5-h7h8-5-5---5-h7h8-5-5-3-|  3x

  (G5)
|----------------------------------------------------------|
|----------------------------------------------------------|
|----------------------------------------------------------|
|----------------------------------------------------------|
|---------------------8-------------------------------1(H)-|
|-5-h7h8-5-5---5-h7h8---8-7---5-h7h8-5-5---5-h7h8-5-5-1(H)-|
Comments