Fuel - Bad Day Chords & Tabs

 

Bad Day Chords & Tabs

Fuel Chords & Tabs

Version: 2 Type: Tab 0 ratings
1 star 2 stars 3 stars 4 stars 5 stars
comments

Bad Day Tab

   
Bad Day
By FUEL
Off the album SOMETHING LIKE HUMAN 
Tabbed by Jaime Williams
JaimeW@aol.com
       Here's the complete, absolutely correct tab for the song.

VERSE, CHORUS:
                          *play up to here twice then start  
                          |over and go all the way through                    
e-0---0--0--0|0---0--0--0-|0-0-0--0-0--0|2-2-2-1-1-1|0-0---0-2
b-0h2-2--2--0|0h2-2--2--0-|2-2-0--2-2--2|3-3-3-3-3-3|0-0h2-0-0
g-2---2--2--2|2---2--2--2-|2-2-2--2-2--2|2-2-2-2-2-2|2-2---2-2
d-2---2--2--2|2---2--2--2-|2-2-2--2-2--2|0-0-0-0-0-0|2-2---2-2
a-0---0--0--0|0---0--0--0-|0-0-0--0-0--0|0-0-0-0-0-0|0-0---0-0
e------------|------------|2-2-2--2-2--2|-----------|---------

(BOTH OF THESE ARE VERSE CHORDS) 
Had a bad day again
She said I would not understand.
She left a note and said I'm sorry I had a bad day again.
(pause)
She spilled her coffee, broke her shoelace.
Smeared the lipstick on her face.
Slammed the door and said I'm sorry, I had a bad day again.
[ Tab from: http://www.guitartabs.cc/tabs/f/fuel/bad_day_tab_ver_2.html ]
Bridge chords       
  D-E-F#M-Bm
e-2-------2-
b-3---2---3-
g-2-1-2---4-
d---2-2---4-
a---2-0---2-
e-----2-----
BRIDGE:
        D                 E     F#M      
and she swears theres  nothing  wrong,
  E         D                E    F#M        
I hear her playing that same old song,          
     E      D               Bm		            |verse Chords 
she puts me off and puts me on, and had a bad day again
she said I would not understand.
and left a note and said i'm sorry,I,I had a bad day again,noahoh




{Solo (rhythm guitar plays verse chords)

-|------------------------|------------------------|-
-|------------------------|------------------------|-
-|-----6~--6--------------|-----6~-6---------------|-
-|-6-7----7-7--6b7r6------|-6-7---7-7-6b7r6--6b7r6-|-
-|-------------------7----|------------------------|-
-|------------------------|------------------------|-

-|------------------------|------------------------|-
-|------------------------|------------------5~~---|-
-|-----6~-6---------------|-----6~--6--------------|-
-|-6-7---7-7--6b7r6-------|-6-7----7-7-6b7r6-------|-
-|------------------7b8r7-|------------------------|-
-|------------------------|------------------------|-

BRIDGE:
        D                E     F#M      
and she swears there's nothing wrong, 
   E         D            E    F#M      
I hear her play that same old song
      E      D              Bm 
she puts me off and puts me on, oh
 
                    |Verse Chords again
And had a bad day again
She said I would not understand.
She left a note and said i'm sorry, I, I had a bad day again
(skip the F#m going into this part) 
She left a note and said I'm sorry, I, I had a bad day(hold out)
outro (solo is played in background)
ah,ah,ah,hah 
ah,ah,ah,hah
             *(shift to D right here)
ah,ah,ah,hah,|all right, eww,ew,ew,ew, ahhuh





Comments