Fuel - Bad Day Full Chords & Tabs

 

Bad Day Full Chords & Tabs

Fuel Chords & Tabs

Version: 1 Type: Tab 0 ratings
1 star 2 stars 3 stars 4 stars 5 stars
comments

Bad Day Full Tab

   
Fuel
Bad Day
tabbed by moonsoon3@aol.com

as far as I know, nobody has tabbed the solo.  also, nobody
adds the Bm chord that's at the end of the D-E-F#m-E section.
so here's the complete, absolutely correct tab for the song.

i saw these guys live @ rutgers university and it was awesome. they closed
with a Stairway to Heaven intro to Bittersweet, Bad Day, then Hemmorage.  my only
beef was that the genius in their records is the harsh contrast between
hard and soft....live, they just turned the volume to the max on everything.

Intro: Asus2->A Asus2 (it's just the first 2 measures of the verse.  then go
into the full verse).

VERSE, CHORUS:

Asus2 A         Asus2 A         F#m7  Asus2	     D      Dm      A   Asus2
e-0---0--0--0--|--0---0--0--0-|---0-0-0----0-0--0-|--2-2-2--1-1-1-|-0-0-0----2-
b-0h2-2--2--0--|--0h2-2--2--0-|---2-2-0----2-2--0-|--3-3-3--3-3-3-|-2-2-0h2--2-
g-2---2--2--2--|--2---2--2--2-|---2-2-2----2-2--2-|--2-2-2--2-2-2-|-2-2-2----2-
d-2---2--2--2--|--2---2--2--2-|---2-2-2----2-2--2-|--0-0-0--0-0-0-|-2-2-2----2-
a-0---0--0--0--|--0---0--0--0-|---0-0-0----0-0--0-|--0-0-0--0-0-0-|-0-0-0----0-
e--------------|--------------|-2--------2--------|---------------|------------

I had a bad day, yeah.
She said you would not understand.
She left a note that said I'm 
Sorry, I, I had a bad day yeah.

She spilled her coffee broke a shoelace.
and smeared the lipstick on her face.
Slammed the door and said I'm
Sorry, I, I had a bad day again.
[ Tab from: http://www.guitartabs.cc/tabs/f/fuel/bad_day_full_tab.html ]
BRIDGE:
        D                E     F#m      E
and she swears there's nothing wrong, I hear her
D             E    F#m       E
play that same old song, she puts me         ________________
D              Bm			     |back to verse->
up and puts me on, oh woah, I had a bad day again

(I had a bad day again)
she said you would not understand.
she left a note that said i'm 
sorry, I, I had a bad day again. woah woah woah woah.

Solo (rhythm guitar plays verse/chorus chords)

 | Asus2->A->Asus2->A     | A/F#->Asus2  Asus2->A  |
-|------------------------|------------------------|-
-|------------------------|------------------------|-
-|-----6~--6--------------|-----6~-6---------------|-
-|-6-7----7-7--6b7r6------|-6-7---7-7-6b7r6--6b7r6-|-
-|-------------------7----|------------------------|-
-|------------------------|------------------------|-


 |D->Dm			  | Asus2->A->Asus2->A     |
-|------------------------|------------------------|-
-|------------------------|------------------5~~---|-
-|-----6~-6---------------|-----6~--6--------------|-
-|-6-7---7-7--6b7r6-------|-6-7----7-7-6b7r6-------|-
-|------------------7b8r7-|------------------------|-
-|------------------------|------------------------|-

BRIDGE:
        D                E     F#m      E
and she swears there's nothing wrong, I hear her
D             E    F#m       E
play that same old song, she puts me         ________________
D              Bm			     |back to verse->
up and puts me on, oh woah, I had a bad day again

(I had a bad day again)
she said you would not understand.
she left a note that said i'm 
sorry, I, I had a bad day again.
			      Bm//////Dm
she left a note that said I'm sorry, I, I had a bad day~~~ (drum fill)-->outro/verse.

outro is verse/chorus chords with "ah ah ah ah" being sung.

peace, love, rock and roll,
Matt
Comments