Fuck Im Dead - Skull Fucked Chords & Tabs

 

Skull Fucked Chords & Tabs

Fuck Im Dead Chords & Tabs

Version: 1 Type: Tab 0 ratings
1 star 2 stars 3 stars 4 stars 5 stars
comments

Skull Fucked Tab

Riff 1 (play 4 times)
---------------15ph-|
--------------------|
--------------------|
-5-6----------------|
-3/4----------------|
-----4-4-4-4-4------|
     . . . . .

Fill 1
------|
------|
------|
------|
-2----|
--732-|
 ....

Riff 2 (play 8 times)
---------------17ph-|
--------------------|
--------------------|
-5-6----------------|
-3/4-4-3-4-6-4------|
-----4-3-4-6-4------|

Riff 3 (play twice)
|-don't--|-----------------------|
|-play---|-----------------------|
|-this---|-----------------------|
|-again--|-----------------------|
|-0------|-----------------------|
|-0------|-03020302030203020302--|
           . . . . . . . . . .

Fill 1
---------------------|
---------------------|
---------------------|
---------------------|
--------3~~----------|
-2221-2--------------|
 .... .

Riff 3 x 1
Fill 1 x 1
[ Tab from: http://www.guitartabs.cc/tabs/f/fuck_im_dead/skull_fucked_tab.html ]
Fill 2
--------------------------|
--------------------------|
--------------------------|
--------------------------|
-5--5--5--5-----3----35~~-|
-5--5--5--5--444-4444-----|
             ... ....

Riff 4 (play 4 times)
---------------|
---------------|
---------------|
---------------|
----3----35~~--|
-444-4444------|
 .... .

Riff 5
-------------------------------------------|
-------------------------------------3-4-3-|
-------------------------------------------|
-------------------------------------------|
-5--5--5--5--5-5-5-5-5-5-5-5-5-5-5-5-------|
-5--5--5--5--5-5-5-5-5-5-5-5-5-5-5-5-------|

Fill 3
--------------|
--------------|
--------------|
--------------|
----4-----4~--|
-201-10201----|
 ... .....

Riff 3 x 2
Riff 1 x 1/2
Bass fill
Drum fill

Riff 6 (play 4 times)
----------------------------------|
----------------------------------|
----------------------------------|
----------------------------------|
-33--556633------33--556633-------|
---44------442211--44------442211-|

Some strange vibrato shit
Riff 5 x 1
Drum fill

End
--------|
--------|
--------|
--------|
-5-5-5--|
-5-5-5--|
Comments