Fuck Im Dead - Horrendous Bowel Evacuation Chords & Tabs

 

Horrendous Bowel Evacuation Chords & Tabs

Fuck Im Dead Chords & Tabs

Version: 1 Type: Tab 0 ratings
1 star 2 stars 3 stars 4 stars 5 stars
comments

Horrendous Bowel Evacuation Tab

   
Band: Fuck...I'm Dead
Song: Horrendous Bowel Evacuation
Album: Fuck...I'm Dead vs. Engorged

Transcribed by: Andrew Collyer
Contact: the_hauntedcrown@hotmail.com

Copyright (c) Razorback Records, 2002

TUNING: C# F# B E G# C#

. - palm mute / - slide up to
\ - slide down to ~ - vibrato
h - hammer on p - pull off
, - slight palm mute () - ghost note, sustained note
" - tremolo note <> - Trill

Suffixes for bend
f - full bend h - half bend
ph - pinched harmonic q - quarter bend
t - tap bend * - see comment
^ - Hold bend r - release bend
x - Stuccatto ~ - vibrato bend

Riff 1 (play 4 times)
--------------------------------------------------------------|
--------------------------------------------------------------|
--------------------------------------------------------------|
---7-----7-----------------------7-----7----------------------| gtr 1
-5---6-5---6-5-4-5-------------5---6-5---6-5-4-5--------------|
-3-----------------6-5-6-3-6-1-3-----------------6-5-6-3-6-1--|
[ Tab from: http://www.guitartabs.cc/tabs/f/fuck_im_dead/horrendous_bowel_evacuation_tab.html ]
--------------------------------------------------------------|
--------------------------------------------------------------|
--------------------------------------------------------------|
--------------------------------------------------------------| gtr 2
-5-(ring)----------------------5-(mute)--------5-----------3--|
-3-----------------------------3---------------3-----------1--|


Riff 2 (play twice)
--------------------------------------------------------------|
--------------------------------------------------------------|
--------------------------------------------------------------|
---7-----7-----------------------7-----7----------------------| gtr 1
-5---6-5---6-5-4-5-------------5---6-5---6-5-4-5--------------|
-3-----------------6-5-6-3-6-1-3-----------------6-5-6-3-6-1--|

--------------------------------------------------------------|
--------------------------------------------------------------|
--------------------------------------------------------------|
--------------------------------------------------------------| gtr 2
-5-(ring)----------7-----------5-(mute)------7-------------3--|
-3-----------------5-----------3-------------5-------------1--|

Riff 1 x 1

End
--------|
--------|
--------|
--------|
-5------|
-3------|
Comments