Fu Manchu - Mongoose Chords & Tabs

 

Mongoose Chords & Tabs

Fu Manchu Chords & Tabs

Version: 1 Type: Tab 0 ratings
1 star 2 stars 3 stars 4 stars 5 stars
comments

Mongoose Tab

   
this is an awesome song and if anything the tab should be correct so i'm makin
it right here

this is the main part
e---------------------------------
B---------------------------------
G---------------------------------
D-------------------------0-------
A-----------------------8---3-0---
E-0-0-0-0-8-10-0-8-10-0---------3-

the chord part goes like this.. (you can figure out the rythm by listening)

e------------------------------------
B------------------------------------
G------------------------------------ 1x
D-------------------7-7-7-7----------
A-7-7-7-7--5-5-5-5--5-5-5-5--7-7-7-7-
E-5-5-5-5--3-3-3-3-----------5-5-5-5-


Chorus
[ Tab from: http://www.guitartabs.cc/tabs/f/fu_manchu/mongoose_tab.html ]
e---------------------------------------------
B---------------------------------------------
G--------------------------------------------- 3x
D----------------7---------5---------7--------
A-2-2-2-2-2-2-2--5--7-7-7--3--5-5-5--5--7-7-7-
E-0-0-0-0-0-0-0-----5-5-5-----3-3-3-----5-5-5-

and the fourth time it goes...

e-------------------------------------------------
B-------------------------------------------------
G-------------------------------------------------
D----------------7---------10------------5--------
A-2-2-2-2-2-2-2--5--7-7-7---8--10-10-10--3--5-5-5-
E-0-0-0-0-0-0-0-----5-5-5-------8--8--8-----3-3-3-

he does this little fill thing once

e-------------------
B-------------------
G-------------------
D-------------------
A-------------------
E-0-0-0-0-8-10-8-10-

yeah the solos are pretty hard, i just make my own up and that sounds pretty cool
but do whatever you want i hope i helped with this tab
PUNK RULES!
Comments