Fu Manchu - Godzilla Chords & Tabs

 

Godzilla Chords & Tabs

Fu Manchu Chords & Tabs

Version: 2 Type: Tab 0 ratings
1 star 2 stars 3 stars 4 stars 5 stars
comments

Godzilla Tab

"Godzilla" by Fu Manchu.

 From the Albums "Eatin' Dust".
 
 Tabbed by SETCH. Brought to you by stickyhomer.

 Tuning:-all strings down a full step.

 eg(DGCFAD)

 Riff 1. (intro & Verse)
[ Tab from: http://www.guitartabs.cc/tabs/f/fu_manchu/godzilla_tab_ver_2.html ]
 d|-------------------------------------------------|
 A|-------------------------------------------------|
 F|-------------------------------------------------|
 C|------5-7-------9-10---------5-7-------9-10------| 
 G|--5-5-3-5-7-8-8-7-8--10--5-5-3-5-7-8-8-7-8--10---|
 D|--3-3-----5-6-6------8---3-3-----5-6-6------8----|
 
 Lead riff 1 (after a couple of repeats of riff 1.)
 
 d|-------------------------------------------------|
 A|----8----------8-----------8----------8----------|
 F|----10b(12)r10-10b(12)r10--10b(12)r10-10b(12)r10-|
 C|-------------------------------------------------| 
 G|-------------------------------------------------|
 D|-------------------------------------------------|

 Riff 2. (Chorus)
 
 I'm not sure whether these are just left to ring or
 given a steady strum with the same rhythm as the bass.

 d|-------------------------------------------------|
 A|-------------------------------------------------|
 F|-------------------------------------------------|
 C|-------------------------------------------------| 
 G|--3--------------------5-------------------------|
 D|--1--------------------3-------------------------|
 
 BASS SOLO!!!!! ooooh so very heavy metal....:)
Comments