Fu Manchu - Godzilla Chords & Tabs

 

Godzilla Chords & Tabs

Fu Manchu Chords & Tabs

Version: 1 Type: Tab 0 ratings
1 star 2 stars 3 stars 4 stars 5 stars
comments

Godzilla Tab

#----------------------------------PLEASE NOTE---------------------------------#
#This file is the author's own work and represents their interpretation of the #
#song. You may only use this file for private study, scholarship, or research. #
#------------------------------------------------------------------------------#

FU MANCHU - GODZILLA
--------------------

Tabbed from the "Go For It...LIVE!" album (the best thing I've heard in ages).
I'm doing this tab from memory but it should be okay. Drop D tuning.

Main guitar part
[ Tab from: http://www.guitartabs.cc/tabs/f/fu_manchu/godzilla_tab.html ]
e|------|-------------|---------|
B|------|-------------|---------|
G|------|-------------|-7-8-----| 
D|-3--3-|-8-10-5-6--6-|-7-8--6--|
A|-3--3-|-8-10-5-6--6-|-5-6--6--|
D|-3--3-|-8-10-5-6--6-|------6--|

Chorus

This is pretty much the same way Fu Manchu play it but
I reckon it sounds better if you extend the power chords.

  "Oh no, they say he's got to go, GO GO GODZILLA!!!"

e|---------------------------------------------------|
B|-4--4---4----4---4----4------4---4--4--6-----------|
G|-3--3---3----3---3----3------3---3--3--5---hold----|
D|-1--1---1----1---1----1------1---1--1--3---chord---|
A|-1--1---1----1---1----1------1---1--1--3-----------|
D|-1--1---1----1---1----1------1---1--1--3-----------|

That's basically the whole song. You can work out 
the solos and improvised bits, they're quite easy.

Great song, great album, great band.

--------------------------------------------------------------
Comments