Fu Manchu - Burning Road Chords & Tabs

 

Burning Road Chords & Tabs

Fu Manchu Chords & Tabs

Version: 1 Type: Tab 0 ratings
1 star 2 stars 3 stars 4 stars 5 stars
comments

Burning Road Tab

"Burning Road" by Fu Manchu.

 From the Album "The Action is go".

 Tabbed by SETCH.

 Tuning:-all strings down a full step.

 eg(DGCFAD)


 Riff 1. (with mild dist and echo)

 d|-------------------------------------------------|
 A|-------------------------------------------------|
 F|--------------------------------------(slow-bend)|
 C|---------------5-[ Tab from: http://www.guitartabs.cc/tabs/f/fu_manchu/burning_road_tab.html ]
 d|-------------------------------------------------|
 A|------------------7-----------5------5-----------|
 F|------------------9-b-11------7-b-9--7-b-9-------|
 C|-2-----------------------------------------------| 
 G|-2-----------------------------------------------|
 D|-0-----------------------------------------------|

 Riff 4 a.
 
 d|-------------------------------------------------|
 A|-------------------------------------------------|
 F|-12----------------------------------------------|
 C|-12------12--------------------5-----2-----------| 
 G|-10------12--------------------5-----2-----------|
 D|---------10--------------------3-----0-----------|

 Riff 4 b. (outro)

 d|-------------------------------------------------|
 A|-------------------------------------------------|
 F|-12------14--------------------12----------------|
 C|-12------14--------------------12----14----------| 
 G|-10------12--12b14r12----------10----14----------|
 D|-------------------------------------12----------|
Comments