Fu Manchu - Blue Tile Fever Chords & Tabs

 

Blue Tile Fever Chords & Tabs

Fu Manchu Chords & Tabs

Version: 1 Type: Tab 0 ratings
1 star 2 stars 3 stars 4 stars 5 stars
comments

Blue Tile Fever Tab

Artist: 	Fu Manchu	
Song:		Blue Tile Fever
Album:	King Of The Road (track 6)
Tuning: 	Down One Step
Tabbed by:  denabob

Rhythm Figure 1:
|----------------------------------------|
|----------------------------------------|
|----------------------------------------|
|-7-7-7-9--9-9-9--9-9-9-9--9-9-9-9-------|
|-7-7-7-9--9-9-9--9-9-9-9--9-9-9-9-------|
|-5-5-5-7-7-7-7--7-7-7-7--7-7-7-7-------|
[ Tab from: http://www.guitartabs.cc/tabs/f/fu_manchu/blue_tile_fever_tab.html ]
Rhythm Figure 2:
|---------------------------------------------------------------------------------------|
|---------------------------------------------------------------------------------------|
|-7-7-7------------------------------7-7-7----------------------------------------------|
|-7-7-7-5--5-5-5--5-5-5-5--5-5-5-5---7-7-7-7--7-7-7---7-7-7-7--7-7-7-7------------------|
|-5-5-5-5--5-5-5--5-5-5-5--5-5-5-5---5-5-5-7--7-7-7---7-7-7-7--7-7-7-7------------------|
|-------3--3-3-3--3-3-3-3--3-3-3-3---------5--5-5-5---5-5-5-5--5-5-5-5------------------|
|
|---------------------------------------------------------------------------------------|
|---------------------------------------------------------------------------------------|
|-7-7-7------------------------------7-7-7----------------------------------------------|
|-7-7-7-9--9-9-9--9-9-9-9--9-9-9-9---7-7-7-9--9-9-9--9-9-9-9--9-9-9-9-------------------|
|-5-5-5-9-9-9-9--9-9-9-9--9-9-9-9---5-5-5-9--9-9-9--9-9-9-9--9-9-9-9-------------------|
|-------7--7-7-7--7-7-7-7--7-7-7-7---------7--7-7-7--7-7-7-7--7-7-7-7-------------------|

Rhythm Figure 3:
|----------------------------|
|----------------------------|
|----------7---9-------------|
|-7-7-9-9--7-7-9-9-----------|
|-7-7-9-9--5-7-7-9-----------|
|-5-5-7-7----5---7-----------|

Rhythm Figure 4:
|------------------------------------|
|------------------------------------|
|-9-9--7-7-----------5-7-7-----------|
|-9-9--7-7-7-7--5-5--5-7-7-----------|
|-7-7--5-5-7-7--5-5--3/5-5-----------|
|----------5-5--3-3------------------|


Song Structure:

Rhythm Figure 1 (Phaser on)	(12X)
Rhythm Figure 2			(2X)
Rhythm Figure 3 (Phaser off)	(12X)
Rhythm Figure 4 			(1X)
Rhythm Figure 1			(8X)
Rhythm Figure 2			(2X)
Rhythm Figure 3			(16X)	
Rhythm Figure 4			(1X)
Rhythm Figure 1 (Phaser on)	(27X)
Comments