Fu Manchu - Anodizer Chords & Tabs

 

Anodizer Chords & Tabs

Fu Manchu Chords & Tabs

Version: 3 Type: Tab 0 ratings
1 star 2 stars 3 stars 4 stars 5 stars
comments

Anodizer Tab

"Anodizer" by Fu Manchu.

 From the Album "The Action is go".

 Tabbed by SETCH. Brought to you by stickyhomer.

 Tuning:-All strings down one full step, then drop E down to C.

 eg(CGCFAD)


 Riff 1. 
 
 d|-----------------------------------------|
 A|-----------------------------------------|
 F|-----------------------------------------|
 C|-----3h5-3------3--------3h5-3-----------| 
 G|-3h5--------3h5---5--3h5--------3-5-0----|
 C|--------------------------------3-5-0----|

 Riff 2. 
[ Tab from: http://www.guitartabs.cc/tabs/f/fu_manchu/anodizer_tab_ver_3.html ]
 d|-----------------------------------------|
 A|-----------------------------------------|
 F|-----------------------------------------|
 C|-----------------------------------------| 
 G|-7-7--7-7-7--9-3-3-3-3-3-3---0-----------|
 C|-7-7--7-7-7--9-3-3-3-3-3-3---0-----------|

 Riff 3.

 d|-----------------------------------------|
 A|-----------------------------------------|
 F|-----------------------------------------|
 C|-----------------------------------------| 
 G|-1-------------------0-------------------|
 C|-1--let-ring---------0---let-ring--------|

 Riff 4.

 d|-----------------------------------------|
 A|-----------------------------------------|
 F|-----------------------------------------|
 C|-----------------------------------------| 
 G|-3h5-55--------------3h5-55--------------|
 C|---------3h5p3-0-------------3h5p3-0-----|
Comments